improvisação

    Autor Mensagem
    Gandula
    Veterano
    # jul/04


    algumas escalas pra improvisar na musica back in black!!!!!!

    e se possivel tappings

    guitarist from hell
    Veterano
    # jul/04
    · votar


    a primeira frase do solo é essa:

    e------------------------------------------------------
    B------------------------------------------------------
    G------------------------------------------------------
    D------------------------------------------------------
    A-------7~~---------5~~---------4~~--------------------
    E--0----------0-----------0----------------------------


    agora é com vc huaahuuahhuahua

    Gandula
    Veterano
    # jul/04
    · votar


    eu sei
    hehe
    mas tipo eu não kero o solo!
    eu kero escalas ou tappings ou alguma tecnica manera q posso lança na hora du solu pow!

    BlindGuardian
    Veterano
    # jul/04
    · votar


    pentatonica menor de G......

    hahaha, faz uns anos já que não escuto essa musica tá? rss ou seja, não me leve muito a sério...

    Gandula
    Veterano
    # jul/04
    · votar


    pqp!
    eu manjo quase nada d escala cara! ae c vcs falarem a escala q da pra usar eu vo la e aprendo ela hehe! intão falem na moral po :P! tipo o lance do tapping o q da pra fazê?

    claretimus
    Veterano
    # jul/04
    · votar


    vai estudar kra

    BlindGuardian
    Veterano
    # jul/04
    · votar


    pega isso e tenta fazer algo em cima


    e|---------------------------------------------------------|
    B|---------------------------------------------------------|
    G|-------------------0-2h3p2p0-2------------------7-7-7-7--|
    D|-----------------2-------------2-------------------------|
    A|---7~----5~---4~-------------------7~---5~---4~----------|
    E|-0-----0----0--------------------0----0----0-------------|

    e|-------------------------------------------------------------------- --|
    B|---------8----------8-10h11p10p8-10-9-----------------------15------ --|
    G|-7b9~--9---9---9~-9-------------------9---9--12----12-14b16----14b16 ~-|
    D|----------------------------------------9-------14------------------ --|
    A|-------------0------------------------------------------------------ --|
    E|-------------------------------------------------------------------- --|

    e|---------------------------------------------------------|
    B|-15--------------------------------------------15--------|
    G|----14b16r14p12-14~-12-------12----14-12-14b16----14b16~-|
    D|--------------------12-14-14----14-----------------------|
    A|---------------------------------------------------------|
    E|---------------------------------------------------------|

    e|---------12-12---------------------------12------------------------- --------------------------------|
    B|------12-------15b17-15b17~--15b17-15b17----15p12----12----------15- ------15------------------------|
    G|14b16---------------------------------------------14----12-14b16---- 14b16----14b16r14p12-12----12-14|
    D|-------------------------------------------------------------------- ------------------------14------|
    A|-------------------------------------------------------------------- --------------------------------|
    E|-------------------------------------------------------------------- --------------------------------|

    e|----------------------------------------------------------12-------- -----------|
    B|-------12----14-------------15-15------------------15b17~----15p12-- --12-------|
    G|-------12----14----12-14b16----14b16r14p12-------------------------1 4----12----|
    D|-14-14----14----14-------------------------14~--14------------------ --------14-|
    A|-------------------------------------------------------------------- -----------|
    E|-------------------------------------------------------------------- -----------|

    e|---------------0-0-0-0----0-0-0-0----------12---------------------0- --0--0-0-0---------12///|
    B|-2p0-0---3-5~--3/2-3-3~---2p0-2-2-------12----15b17-15-15--5-3-5--3/ 2-3--2p0-2---15---------|
    G|-------4-----------------------------14----------------------------- -------------14b16------|
    D|-------------------------------------------------------------------- ------------------------|
    A|-------------------------------------------------------------------- ------------------------|
    E|-------------------------------------------------------------------- ------------------------|


    naka
    Veterano
    # jul/04
    · votar


    penta menor de E , essa musica e joinha pra improvisa

      Enviar sua resposta para este assunto
              Tablatura   
      Responder tópico na versão original
       

      Tópicos relacionados a improvisação