JAZZ

Autor Mensagem
Fábio Lyrio
Veterano
# mai/04 · Editado por: Fábio Lyrio


blz... Começar um tópico bacana, quem puder me ajudar contribua aí...

O Jazz é uma referencia musical, vemos hoje grandes artistas influenciados pelo jazz. O legal é que não importa o estilo que vc toca, o jazz vc pode aplicar em qualquer musica. Nos solos do Kiko Loureiro se analisados trascrevem muita influencia jazz/blues.

Aki vou passar um exercícios (warmup) que me quebrou por um tempo. É uma seq de arpeggios que vc faz tirando um dedo por vez.


e---------2---------1---------1---------1---------1----
B-------3---------3---------2---------2---------2------
G-----4---------4---------4---------3---------3--------
D---5---------5---------5---------5---------4----------
A------------------------------------------------------
E------------------------------------------------------





e---------2---1---------------1---1---------------1----
B-------3-------3-----------2-------2-----------2------
G-----4-----------4-------4-----------3-------3--------
D---5---------------5---5---------------5---4----------
A------------------------------------------------------
E------------------------------------------------------



depois continua...

Fábio Lyrio
Veterano
# mai/04 · Editado por: Fábio Lyrio
· votar


Os exercícios acima são pra treino diário. Trabalhe lentamente. Esta não é uma tecnica da velocidade, por isso, treine devagar, isto te fornece o controle da separação dos dedos.

O próxmo treino é um excelente warm-up. O exemplo 3 é um arpeggio de G7/9, o tom "G" da raiz não é tocado, repare. Use somente os dedos 1 e 4. Uma vez dominado, use todos os quatro dedos preenchendo o diagrama das notas:


(ex3)

e-----------------------7-10-------------------------7----10-
B-------------------6-9---------------------------6-----9----
G---------------4-7------------------4--------7--------------
D-----------3-6--------------------3--------6----------------
A-------2-5----------------------2--------5------------------
E--1-4------------------------1--------4---------------------


Nos ex. abaixo, entre parenteses, estão as tonicas.

(ex4 - G)

e----------------------------------------------------------
B----------------------------------5-6-7-(8)---------------
G--------------------------4-5-6-7-------------------------
D----------------2-3-4-(5)---------------------------------
A-------2-3-4-5--------------------------------------------
E--(3)-----------------------------------------------------

(ex5 - C)

e---------------------------------5-6-7-(8)-----------------
B-------------------------5-6-7-8---------------------------
G---------------2-3-4-(5)-----------------------------------
D-------2-3-4-5---------------------------------------------
A--(3)------------------------------------------------------
E-----------------------------------------------------------

Na próxima que eu voltar, vou trazer uma série de exercícios avançados sobre acordes, na utilização comum realçada e substituições, acordes gerados da escala, etc. ok? vlw.

Fábio Lyrio
Veterano
# mai/04 · Editado por: Fábio Lyrio
· votar


Alguns arpeggios:

Fábio Lyrio
Veterano
# mai/04 · Editado por: Fábio Lyrio
· votar


E------------------3^8-T12^8^3-------------------------------
B---------------5------------------5-------------------------
G------------5-----------------------5-----------------------
D---------5----------------------------5---------------------
A------7----------------------------------7------------------
E-3^8----------------------------------------8^3-------------


E----------------8^12-15T^12^8-------------------------------
B--------------8--------------------8------------------------
G------------9------------------------9----------------------
D---------10----------------------------10-------------------
A------10---------------------------------10-----------------
E-8^12---------------------------------------12^8------------


E--------------------12^15-20T^15^12-------------------------
B-----------------13----------------------13-----------------
G--------------12----------------------------12--------------
D-----------14----------------------------------14-----------
A--------15----------------------------------------15--------
E-12^15-----------------------------------------------15^12--

pagode nem morto
Veterano
# mai/04
· votar


Pq a maioria das pessoas colocam Jazz/Blues?

Jazz e Blues são coisas totalmente diferentes...

Fábio Lyrio
Bem legal.

Fábio Lyrio
Veterano
# mai/04
· votar


pagode nem morto,

Jazz/Blues quer dizer: jazz E blues...

pagode nem morto
Veterano
# mai/04
· votar


Fábio Lyrio

Ah tá. Vlw.

ziotti
Veterano
# mai/04
· votar


Fábio Lyrio
sera q ñ da pra vc explicar um poko da parte teorica do jazz?

vlw!!!

Gabriel_Bp
Veterano
# mai/04
· votar


ziotti: até daria mas pelo amor de deus teria que ter um fórum só pra isso eu acho :))
Fábio Lyrio: muito boa a iniciativa cara! parabéns.

yvo
Veterano
# mai/04
· votar


to pegando varias musicas de jazz agora, que tem na apostila do meu curso de guitarra... bem elaboradas pra cacete...

e alguem ja ouviu pat metheny (acho que eh assim o sobrenome)... mto foda, vi um video dele um dia

nothing else matters
Veterano
# mai/04
· votar


yvo
ele eh um otimo guitarrista
tenho algumas coisas dele

ziotti
Veterano
# mai/04
· votar


Gabriel_Bp
nada mto extenso, alguma coisa soh pra introduzir ao jazz pq é um estilo mto complexo

nothing else matters
Veterano
# mai/04
· votar


ziotti
por exemplo
o mpb eh uma variacao jazzistica com um som mais brasileiro
saca?

ziotti
Veterano
# mai/04
· votar


nothing else matters
soh...

brunoepronto
Melhor participante de jam
Prêmio FCC violão 2008
# jun/04
· votar


yvo
Curto pra kramba o som dele, tenho algumas músicas.

Fábio Lyrio
Veterano
# jun/04
· votar


yvo,

Coloca aki alguma coisa das suas apostilas...

Pra ziotti e a galera:

dou dando umas dicas simples apenas, como já disseram, o jazz é bem complicado... mas vou fazer o possível pra colocar algumas coisas legais aki, vlw? Quem quiser contribuir é bem vindo!

Fábio Lyrio
Veterano
# jun/04 · Editado por: Fábio Lyrio
· votar


Matrix Key:

Notas #

C 0
G 1 F#
D 2 F#, C#
A 3 F#, C#, G#
E 4 F#, C#, G#, D#
B 5 F#, C#, G#, D#, A#
F# 6 F#, C#, G#, D#, A#, E#



Notas b
C 0
F 1 Bb
Bb 2 Bb, E
Eb 3 Bb, Eb, Ab
Ab 4 Bb, Eb, Ab, Db
Db 5 Bb, Eb, Ab, Db, Gb
Gb 6 Bb, Eb, Ab, Db, Gb, Cb

Muriciobr
Veterano
# jun/04
· votar


Tem uma coisa q tb não dá pra por aqui mas é a principal caracteristica do Jazz q são as colcheias swingadas... q meio dificil de se explicar em tablaturas.

LeandroP
Moderador
# jun/04
· votar


Muriciobr

Sei como é... com ponto de aumento né?!

Daí tu acentua a nota no contratempo.


Fábio Lyrio

Se misturar o que tu postou aí com as notas vizinhas, sombras, fica bem característico de jazz.
.
.
O Jazz não precisa ser necessariamente complicado. Com três acordes dá pra fazer uma melodia bem ao estilo blue-jazz. Vejam esta progressão:

||: Bm Bm7 | Fdim | F#7 :||

.
.

e----------------------|-------------------------------
B--12-10----10-12-12---|--------10-12------------------
G--------11------------|-----11-------10------9---7----
D----------------------|-------------------------------
A----------------------|-------------------------------
E--- Bm -------- Bm7 --|------------- Fdim --- F#7-----


.
Faça a mesma coisa, mais grave, pra completar a melodia.

Depois inverta, susbstitua.

Fábio Lyrio
Veterano
# jun/04 · Editado por: Fábio Lyrio
· votar


Como havia falado (escrito), vou fazer uma pequena abordagem sobre acordes, me baseando nos trabalhos e ideologias de Lou Mecca, Perry Terhune e Jack Grasse, e apostilas/livros traduzidos.
sabemos que o jazz tem um fundamento especial quanto ao que se diz acompanhamento, com bases complexas, escalas analisadas e variados andamentos,
por isso o estudo é a chave do sucesso para qualquer musico, mas vale lembrar que é apenas uma revisão, não se tratando de formação de acordes
(vide tópico Glossário de Acordes), se vc manja pode contribuir dando mais orientação àqueles que estão iniciando.

"Acordes Avançados"

Vou fazer uma revisão de 14 formas dos acordes comuns, onde cada forma tem 4 váriações. Vai ser apresentado as seguintes:

Maior (Maj), menor, Dom 7, m7, 6, m6, Dom 7-5, Maj7 (7M), Dom 9, m9, Augmented, Diminished,
m7-5, e Dom7sus.

Vários dos acordes na TAB são conhecidos nossos, porém alguns podem parecer estranhos (e parecidos com outros acordes) por não apresentar uma tônica relevante (no baixo) ou ter a mesma construção.

ATENÇÃO: Na TAB, a nota que tiver entre { } colchetes é opcional,
e a que tiver entre ( ) parenteses é a tônica ou a que caracteriza o acorde..


F Maj



e--{1}---------------------------------------------------
B---1---------------------------------------------------
G---2---------------------------------------------------
D--(3)---------------------------------------------------
A---3---------------------------------------------------
E--{1}----------------------------------------------------



Bb Maj


e------------------------------------------------------
B----3--------------------------------------------------
G----3--------------------------------------------------
D----3--------------------------------------------------
A---(1)--------------------------------------------------
E---{1}---------------------------------------------------



A Maj


e------------------------------------------------------
B---2---------------------------------------------------
G--(2)---------------------------------------------------
D---2---------------------------------------------------
A---4---------------------------------------------------
E--{5}----------------------------------------------------



D Maj


e------------------------------------------------------
B----3--------------------------------------------------
G----2--------------------------------------------------
D----4--------------------------------------------------
A---(5)-------------------------------------------------
E---{5}---------------------------------------------------



F menor



e--{1}---------------------------------------------------
B---1---------------------------------------------------
G---1---------------------------------------------------
D--(3)---------------------------------------------------
A---3---------------------------------------------------
E--{1}----------------------------------------------------



Bb Menor


e---{1}--------------------------------------------------
B----2--------------------------------------------------
G----3--------------------------------------------------
D----3--------------------------------------------------
A---(1)--------------------------------------------------
E-------------------------------------------------------


A menor


e------------------------------------------------------
B------------------------------------------------------
G----2----------------------------------------------------
D----2----------------------------------------------------
A----3----------------------------------------------------
E---(5)----------------------------------------------------


D menor


e----1----------------------------------------------------
B---(3)----------------------------------------------------
G----2----------------------------------------------------
D----3----------------------------------------------------
A------------------------------------------------------
E------------------------------------------------------



F7


e------------------------------------------------------
B---4---------------------------------------------------
G---2---------------------------------------------------
D--(3)---------------------------------------------------
A---3---------------------------------------------------
E------------------------------------------------------



Bb7


e------------------------------------------------------
B---3---------------------------------------------------
G---1---------------------------------------------------
D---3---------------------------------------------------
A--(1)---------------------------------------------------
E--{1}----------------------------------------------------



A7


e------------------------------------------------------
B---2---------------------------------------------------
G--(2)---------------------------------------------------
D---2---------------------------------------------------
A--{4}----------------------------------------------------
E---3---------------------------------------------------



D7


e------------------------------------------------------
B--(3)---------------------------------------------------
G---5---------------------------------------------------
D---4---------------------------------------------------
A--{5}---------------------------------------------------
E---5---------------------------------------------------



Fm7


e--{1}----------------------------------------------------
B---4---------------------------------------------------
G---1---------------------------------------------------
D--(3)---------------------------------------------------
A---3---------------------------------------------------
E--{1}----------------------------------------------------



Bbm7


e------------------------------------------------------
B---2---------------------------------------------------
G---1---------------------------------------------------
D---3---------------------------------------------------
A--(1)---------------------------------------------------
E--{1}----------------------------------------------------



Am7


e------------------------------------------------------
B---1------------------------{5}---------------------------
G--(2)-----------------------{5}---------------------------
D---2------------------------{5}---------------------------
A------------------------------------------------------
E---3-----------Ou-----------{5}-----------------------------



Dm7



e------------------------------------------------------
B--(3)---------------------------------------------------
G---5---------------------------------------------------
D---3---------------------------------------------------
A------------------------------------------------------
E---5---------------------------------------------------




F6



e------------------------------------------------------
B---3---------------------------------------------------
G---2---------------------------------------------------
D--(3)---------------------------------------------------
A---3---------------------------------------------------
E------------------------------------------------------



Bb6



e------------------------------------------------------
B----3--------------------------------------------------
G---(3)--------------------------------------------------
D----3--------------------------------------------------
A------------------------------------------------------
E----3--------------------------------------------------



G6


e------------------------------------------------------
B----3--------------------------------------------------
G----4--------------------------------------------------
D----2--------------------------------------------------
A------------------------------------------------------
E---(3)--------------------------------------------------



D6



e------------------------------------------------------
B--(3)---------------------------------------------------
G---4---------------------------------------------------
D---4---------------------------------------------------
A--{5}----------------------------------------------------
E---5---------------------------------------------------



Fm6



e------------------------------------------------------
B---3---------------------------------------------------
G---1---------------------------------------------------
D--(3)---------------------------------------------------
A---3---------------------------------------------------
E------------------------------------------------------



Bbm6


e------------------------------------------------------
B----2--------------------------------------------------
G---(3)--------------------------------------------------
D----3--------------------------------------------------
A------------------------------------------------------
E----3--------------------------------------------------



Gm6



e----{3}-------------------------------------------------
B-----3-------------------------------------------------
G-----3-------------------------------------------------
D-----2-------------------------------------------------
A------------------------------------------------------
E----(3)--------------------------------------------------


Fábio Lyrio
Veterano
# jun/04
· votar


Dm6



e---{5}---------------------------------------------------
B---(3)--------------------------------------------------
G----4--------------------------------------------------
D----3--------------------------------------------------
A------------------------------------------------------
E----5--------------------------------------------------



F7-5



e------------------------------------------------------
B---4---------------------------------------------------
G---2---------------------------------------------------
D--(3)---------------------------------------------------
A---2---------------------------------------------------
E------------------------------------------------------



Bb7-5



e------------------------------------------------------
B---3---------------------------------------------------
G---1---------------------------------------------------
D---2---------------------------------------------------
A--(1)---------------------------------------------------
E------------------------------------------------------



G7-5



e------------------------------------------------------
B----2--------------------------------------------------
G----4--------------------------------------------------
D----3--------------------------------------------------
A------------------------------------------------------
E---(3)--------------------------------------------------




D7-5



e------------------------------------------------------
B---(3)--------------------------------------------------
G----5--------------------------------------------------
D----4--------------------------------------------------
A------------------------------------------------------
E----4--------------------------------------------------



FMaj7 (F7M)




e------------------------------------------------------
B----1--------------------------------------------------
G----2--------------------------------------------------
D----2--------------------------------------------------
A------------------------------------------------------
E---(1)--------------------------------------------------



BbMaj7



e------------------------------------------------------
B----3--------------------------------------------------
G----2--------------------------------------------------
D----3--------------------------------------------------
A---(1)--------------------------------------------------
E---{1}---------------------------------------------------



AMaj7



e---{4}---------------------------------------------------
B----2--------------------------------------------------
G---(2)--------------------------------------------------
D----2--------------------------------------------------
A------------------------------------------------------
E----4--------------------------------------------------



DMaj7



e------------------------------------------------------
B----2--------------------------------------------------
G----2--------------------------------------------------
D----4--------------------------------------------------
A---(5)--------------------------------------------------
E---{5}---------------------------------------------------



* abaixo, os acordes F9 e D9 não possuem a Tonica. No acorde F9 vc pode usar a 9a. na 6a. ou 1a corda.
O acorde D9 na primeira inversão resolve perfeitamente um GMaj7 ou G6



F9



e---{3}---------------------------------------------------
B----1--------------------------------------------------
G----2--------------------------------------------------
D----1--------------------------------------------------
A------------------------------------------------------
E----3--------------------------------------------------



D9



e------------------------------------------------------
B----1--------------------------------------------------
G----2--------------------------------------------------
D----2--------------------------------------------------
A------------------------------------------------------
E----2--------------------------------------------------


Fábio Lyrio
Veterano
# jun/04
· votar


* abaixo, os acordes A9 e D9 não apresentam a 9a. O acorde A9 está na 3a. inversão,
e no D9 a tonica é opcional.


A9



e------------------------------------------------------
B----2--------------------------------------------------
G----4--------------------------------------------------
D----2--------------------------------------------------
A------------------------------------------------------
E----3--------------------------------------------------


D9



e------------------------------------------------------
B----5--------------------------------------------------
G----5--------------------------------------------------
D----4--------------------------------------------------
A---{5}---------------------------------------------------
E----5--------------------------------------------------



* A seguir, sem a tonica definindo o acorde.


Fm9



e---{3}---------------------------------------------------
B----1--------------------------------------------------
G----1--------------------------------------------------
D----1--------------------------------------------------
A------------------------------------------------------
E----3--------------------------------------------------

Dm9 (perfeitamente um F7M)


e------------------------------------------------------
B----1--------------------------------------------------
G----2--------------------------------------------------
D----2--------------------------------------------------
A------------------------------------------------------
E----1--------------------------------------------------



* dois ótimos acordes de m9. No Am9 tbm pode ser incluido as duas cordas soltas, dando uma
sonoridade bacana, e se observar o Am9 pode ser tornar um C7M. Já no acorde Dm9 a tonica D é opcional,
lembrando sua equivalencia com o F7M.

Am9



e------------------------------------------------------
B------------------------------------------------------
G----4--------------------------------------------------
D----2--------------------------------------------------
A----3--------------------------------------------------
E----3--------------------------------------------------



Dm9



e------------------------------------------------------
B----5--------------------------------------------------
G----5--------------------------------------------------
D----3--------------------------------------------------
A---{5}---------------------------------------------------
E----5--------------------------------------------------

F aug



e------------------------------------------------------
B----2--------------------------------------------------
G----2--------------------------------------------------
D---(3)--------------------------------------------------
A----4--------------------------------------------------
E------------------------------------------------------



Bb aug



e------------------------------------------------------
B----3--------------------------------------------------
G---(3)--------------------------------------------------
D----4--------------------------------------------------
A----5--------------------------------------------------
E------------------------------------------------------



A aug



e------------------------------------------------------
B------------------------------------------------------
G----2--------------------------------------------------
D----3--------------------------------------------------
A----4--------------------------------------------------
E---(5)--------------------------------------------------



D aug



e------------------------------------------------------
B---3---------------------------------------------------
G---3---------------------------------------------------
D---4---------------------------------------------------
A--(5)---------------------------------------------------
E------------------------------------------------------



F dim7



e------------------------------------------------------
B----4--------------------------------------------------
G----1--------------------------------------------------
D---(3)--------------------------------------------------
A----2--------------------------------------------------
E------------------------------------------------------



C dim7



e------------------------------------------------------
B----4--------------------------------------------------
G----2--------------------------------------------------
D----4--------------------------------------------------
A---(3)--------------------------------------------------
E------------------------------------------------------



A dim7



e------------------------------------------------------
B----4--------------------------------------------------
G----5--------------------------------------------------
D----4--------------------------------------------------
A------------------------------------------------------
E---(5)--------------------------------------------------



D dim7



e------------------------------------------------------
B---(3)--------------------------------------------------
G----4--------------------------------------------------
D----3--------------------------------------------------
A------------------------------------------------------
E----4--------------------------------------------------



Fm7-5



e------------------------------------------------------
B----4--------------------------------------------------
G----1--------------------------------------------------
D---(3)--------------------------------------------------
A----2--------------------------------------------------
E------------------------------------------------------



Bbm7-5



e------------------------------------------------------
B----2--------------------------------------------------
G----1--------------------------------------------------
D----2--------------------------------------------------
A---(1)--------------------------------------------------
E------------------------------------------------------



Am7-5



e------------------------------------------------------
B----4--------------------------------------------------
G----5--------------------------------------------------
D----5--------------------------------------------------
A------------------------------------------------------
E---(5)--------------------------------------------------



Dm7-5



e------------------------------------------------------
B---(3)---------------------------------------------------
G----5--------------------------------------------------
D----3--------------------------------------------------
A------------------------------------------------------
E----4--------------------------------------------------

F7sus



e------------------------------------------------------
B----4--------------------------------------------------
G----3--------------------------------------------------
D---(3)---------------------------------------------------
A----3--------------------------------------------------
E------------------------------------------------------



Bb7sus



e------------------------------------------------------
B----4--------------------------------------------------
G----1--------------------------------------------------
D----3--------------------------------------------------
A---(1)--------------------------------------------------
E------------------------------------------------------

A7sus



e------------------------------------------------------
B----3--------------------------------------------------
G---(2)--------------------------------------------------
D----2--------------------------------------------------
A------------------------------------------------------
E----3--------------------------------------------------

D7sus


e------------------------------------------------------
B---(3)--------------------------------------------------
G----5--------------------------------------------------
D----5--------------------------------------------------
A------------------------------------------------------
E----5--------------------------------------------------


Fábio Lyrio
Veterano
# jun/04
· votar


Droga... nunca consigo editar essas coisas... Os nomes dos acordes sairam colados nas TABS... Bem, o que vale são os acordes abaixo do nome ok? Não tá muito perto mas dá pra entender...

Fábio Lyrio
Veterano
# jun/04
· votar


Se misturar o que tu postou aí com as notas vizinhas, sombras, fica bem característico de jazz.
.
.
O Jazz não precisa ser necessariamente complicado. Com três acordes dá pra fazer uma melodia bem ao estilo blue-jazz



LeandroPanucci,

BLZ? Tô estudando o seu tópico sobre sombras e notas vizinhas... Nunca tinha visto...

Bem, eu acho que o Jazz não é dificil, mas ele pode se tornar! Sempre ví o Blues como a opção fácil pra improviso, mas veja, o blues quando bem executado pode tomar uma proporção grande... ficando bem complix... O jazz é chato na hora das mudanças de tempo... ficar concentrado na cabeça de tempo, etc... de resto é fácil, aliais, tbm é muito utilizado escalas blues pra improvisar no jazz né? Que ironia!

Fábio Lyrio
Veterano
# jun/04 · Editado por: Fábio Lyrio
· votar


Aí galera, na proxima vou dar uns exemplos de acordes na 1a. inversão, e mais uns baratos, ok? vlw!

Haaa, e uma série de Arpeggios!!!

Fábio Lyrio
Veterano
# jun/04
· votar


Os acordes de 1a. inversão não é muito usado pela maioria dos guitarristas. Mas o que é essa inversão?

a 1a. inversão é qunado elevamos a 3ª do acorde no baixo (dando como resultado um acorde de 6ª),
e a 2ª inversão eleva uma 5ª no baixo (dando como resultado acorde de 4ª e 6ª).

Por exemplo, vamos usar o acorde de C Maior, em estado fundamental, quer dizer,
que a tônica está no baixo: C - E - G
Na 1a. inverção contem: E - G - C
Na 2a. inverção contem: G - C - E


Mas vou mostrar somente das formas de 1a. Inversão:
 E Maj

e------------------
B-------5----------
G-------4----------
D------(2)---------
A------------------
E-------4----------


 Em

e------------------
B-------5----------
G-------4----------
D------(2)---------
A------------------
E-------3----------


 E7

e------------------
B-------3----------
G-------4----------
D------(2)---------
A------------------
E-------4----------


 Em7

e------------------
B-------3----------
G-------4----------
D------(2)---------
A------------------
E-------3----------


 E6

e------------------
B-------2----------
G-------4----------
D------(2)---------
A------------------
E-------4----------

 Em6

e------------------
B-------2----------
G-------4----------
D------(2)---------
A------------------
E-------3----------

 E7-5

e------{4}---------
B-------3----------
G-------3----------
D------(2)---------
A------------------
E-------4----------

EMaj7

e------{4}---------
B-------4----------
G-------4----------
D------(2)---------
A------------------
E-------4----------


* acordes abaixo sem tônica:

 E9

e------------------
B-------3-----------
G-------4----------
D-------4-----------
A------------------
E-------4----------

 Em9

e------------------
B-------3----------
G-------4----------
D-------4----------
A------------------
E-------3----------

 E aug

e------------------
B-------1----------
G-------1----------
D------(2)---------
A-------3----------
E------------------

 E dim7

e------------------
B-------2----------
G-------3----------
D------(2)---------
A------------------
E-------3----------


Fábio Lyrio
Veterano
# jun/04 · Editado por: Fábio Lyrio
· votar


BLZ? Essa inversão de 1a. está trabalhada no mesmo esquema que passei sobre acordes avançados, ok?
OBS: os acordes sem tônica do ex. acima são o E9 e o Em9, vlw?

Fábio Lyrio
Veterano
# jun/04
· votar


Vamo lá...

Dando abertura a mais um estudo, vou dar umas dicas sobre arpeggios, primeiro uma idéia avançada sobre o tema, depois posto aki vários exemplos ArpeggiosJazz... Legal seria se vc pegar um desenho do braço da guita e escrever essas idéias pra melhor visualizar as opções que envolve a técnica de passagem no arpeggio, ok?

___X____


Este estudo mostra a técnica de adicionar tons de passagem às estruturas básicas do arpeggio. O resultado é uma série quente e versátil que vc pode usar na hora do improviso, sendo que estas suficiências podem ser usadas nos solos, adicionando mais vida às suas linhas melodicas.

ATENÇÃO:


* todos os tons entre parenteses ( ) são as opções, sendo que vc pode por exemplo nesta linha da TAB:

---2-(4)----, executar o (4) antes do 2, ou tocar o (4) e ignorar o 2. ok?

Vc também pode fazer o seguinte:


----------------
----------2-(4)-
----(2)-4-------
--5-------------
----------------

Vc poderia tocar o 5 - (2) - (4)

OU, o 5 - 4 - 2 - (4)


.
.
.
ARPEGGIOS G


O exemplo 1 é um arpeggio básico de G.
Já no exemplo 2 adicionei um tom extra, ( ) entre parenteses, na escala, gerando um arpeggio G6.
 Ex 1

e--------------3------------
B------------3--------------
G----------4----------------
D--------5------------------
A----2-5--------------------
E--3------------------------




 Ex 2 

e----------------------3----
B----------------3-(5)------
G--------------4------------
D--------(2)-5--------------
A----2-5--------------------
E--3------------------------



Vamos adicionar mais alguns tons no arpeggio G.
No exemplo 3 adicionei uma 6a. e uma 9a. nos graus da escala.
No exemplo 4 foi adicionado mais uma série de tons que se conectam os tons da escala.
 Ex 3 

e--------------------------------3--
B-------------------------3-(5)-----
G------------------(2)-4------------
D------------(2)-5------------------
A--------2-5------------------------
E--3-(5)----------------------------

 Ex 4 

e--------------------------------------------------(2)-3---
B----------------------------------------3-(4)-(5)---------
G------------------------------(2)-(3)-4-------------------
D----------------(2)-(3)-(4)-5-----------------------------
A----2-(3)-(4)-5-------------------------------------------
E--3-------------------------------------------------------


ARPEGGIOS A


Este próximo exemplo aplicará tons de passagem ao arpeggio de A.
O exemplo 1 é um arpeggio básico de A.
No restante dos exemplos foram adicionados as notas de passagem.



 Ex 1

e--------------5-----------------
B----------2-5-------------------
G--------2-----------------------
D------2-------------------------
A----4---------------------------
E--5-----------------------------


 Ex 2

e-------------------(2)-5--------
B---------------2-5--------------
G------------2-------------------
D------2-(4)---------------------
A----4---------------------------
E--5-----------------------------

 Ex 3

e--------------------------(2)-5----
B----------------------2-5----------
G----------------2-(4)--------------
D----------2-(4)--------------------
A----(2)-4--------------------------
E--5--------------------------------


 Ex 4

e------------------------------------------(2)-5-----------------
B------------------------------2-(3)-(4)-5--------------------
G------------------------2-(4)--------------------------------
D--------------2-(3)-(4)-----------------------------------------
A----(2)-(3)-4----------------------------------------------------
E--5-------------------------------------------------------


ARPEGGIOS C
 Ex 1 (básico)

e----------------8--------------
B------------5-8----------------
G----------5--------------------
D------2-5----------------------
A----3--------------------------
E-------------------------------


 Ex 2

e--------------------(5)-8------
B----------------5-8------------
G----------(2)-5----------------
D------2-5----------------------
A----3--------------------------
E-------------------------------


 Ex 3

e----------------------------(5)-8-----
B--------------------(3)-5-8-----------
G--------------(2)-5-------------------
D----------2-5-------------------------
A----3-(5)-----------------------------
E--------------------------------------

ARPEGGIOS D
 Ex 1

e-----------2-5-----------------
B---------3---------------------
G-------2-----------------------
D-----4-------------------------
A---5---------------------------
E-------------------------------

 Ex 2

e---------------2-5-(7)---------
B-------------3-----------------
G-------2-(4)-------------------
D-----4-------------------------
A---5---------------------------
E-------------------------------


 Ex 3

e-----------------------2-5-(7)-
B-----------------3-(5)---------
G-----------2-(4)---------------
D-----(2)-4---------------------
A---5---------------------------
E-------------------------------


Fábio Lyrio
Veterano
# jun/04 · Editado por: Fábio Lyrio
· votar


VLW? Bom, depois continuo postando mais alguns estudos sobre arpeggios, inclusive as suficiências e estilos cromáticos.

*** No exercicio de Arpeggios, como eu disse, é legal vc escrever esses arpegios e suas notas opcionais de passagem em um desenho (no caso o braço da guita), pois se vc fazer completamente do jeito escrito, muitos arpeggios vão ficar com cara "meio-pentatonicos"!!!! Vale da mesma forma, mas é bom vc avaliar as opções de nota no arpeggio.


Falou.

Fábio Lyrio
Veterano
# jun/04 · Editado por: Fábio Lyrio
· votar


Aí vai mais uma pequena abordagem:

Os estilos de suficiências cromaticas.


* entre parenteses ( ) está a tônica


 F6

e-------------------------5-6-7-8---10-11-12-(1)3----
B---------------3-4-5-(6)----------------------------
G-------2-3-4-5--------------------------------------
D---(3)----------------------------------------------
A----------------------------------------------------
E----------------------------------------------------

.
.
.

 A6

e----------------------------9-10-11-12--------------
B-------2-3-4-5---7-8-9-(10)-------------------------
G---(2)----------------------------------------------
D----------------------------------------------------
A----------------------------------------------------
E----------------------------------------------------

.
.
.

 C7-5 / A7-5

e---------------------------6-7-8-9------------------
B-------------------5-6-7-8--------------------------
G-----------3-4-5-6----------------------------------
D---2-3-4-5------------------------------------------
A----------------------------------------------------
E----------------------------------------------------

.
.
.

Ex 1 - Note que a suficiência do acorde F6 resolverá todo o tom do acorde Bb ou da escala de Bb. Treine devagar, e se possivel (cantando) falando as notas na execução.


Ex 2 - A suficiência de A6, que resolve todo o tom do acorde de D ou da escala de D.


Ex 3 - A suficiência do acorde Dom 5-7, sendo o acorde C7-5 tbm uma sufuciencia A7-5. Aqui resolverá
todo o acorde de F ou sua escala.

Enviar sua resposta para este assunto
        Tablatura   
Responder tópico na versão original
 

Tópicos relacionados a JAZZ