Bluesss

Autor Mensagem
Thiago do Val
Veterano
# mai/04


Ae galera tipo eu queria aprender usn solinhos de blues, tipo eu baixei o GUitarra pro so que no site Cifraclub.com.br la na área de guitarra pro tem uns blues muito paias... tipo alguem sabe de um solo de blues manero que tenha um som pra mim poder ver a cifra e tocar ?? Mais tem que ter alguma midi pra mim poder saber o ritimo e a batida.. Vlwww Ajudem aiii

VRock
Veterano
# mai/04
· votar


Pega uma video aula do Robben Ford no KaZaA ou entaum tenta comprar o song book da video aula q vem com muitos fraseados muito bons de Blues e ainda tem o CD pra vc acompanhar e escutar os exercicios para repeti-los!!!

James
Veterano
# mai/04
· votar


puts eu curto blues pra caralho mais naum so muito bom, tem q ter muito feeling pra faze um som legal

DeFoDoN
Veterano
# mai/04
· votar


James
u blues soh sai legal c vc bota sentimento na musica...sem ele, nenhum solo, nenhum msmo...fika bom....eh a palheta na mão direita ou esquerda i u coração na otra mão!!!

James
Veterano
# mai/04
· votar


DeFoDoN
foi profundo hein cara

DeFoDoN
Veterano
# mai/04
· votar


James
uhahuauhauhuauha....mais eh a verdade....soh cum coração u solo sai loko

gunsnzeppelins
Veterano
# mai/04
· votar


Bom, uma pequena lição de blues:
a maioria dos blues mais "alegres" são tocados nas bases E7, A7 e B7; F7, G7 e C7; assim por diante. Daí, dependendo da sonoridade q vc quer tirar, use uma escala menor (modelo Am) no lugr onde ficam as notas. Daí use essa escala:

e-10-8-----------------------------------------------
B-----10-8--------------------------------------------
G---------9-7-----------------------------------------
D-------------9-7-------------------------------------
A-----------------10-7---------------------------------
E---------------------10-7-----------------------------

no caso de Am, coincidindo a última nota, 8E, por exemplo.
Pra dar uma sonoridade mais bluesy, vc pode fazer os acordes em baixo, desse jeito:


e-5-----5----5-----8---------------------
B-5--=--5----7--=--7---------------------
G-6-----6----5-----7---------------------
D-5----------7---------------------------
A-7----------5---------------------------
E-5----------5---------------------------


E pra dar uma incrementada no blues, crie riffs em cima dessa escalas, ou em cima das notas.

Joonio
Veterano
# mai/04 · Editado por: Joonio
· votar


cara, clika aki e ve esse site mto bom mso e tem tudo q vc qr
www.fenderplayersclub.com/home/blues.htm

Agente Smith
Veterano
# mai/04
· votar


ae , TODOS os solos de blues estão praticamente nessa escala:


    Escala De Blues(Am)

e----------------------------5-8-------------------------
B------------------------5-8-----------------------------
G------------------5-7-8---------------------------------
D--------------5-7---------------------------------------
A--------5-6-7-------------------------------------------
E----5-8-------------------------------------------------


rules
Veterano
# mai/04
· votar


ae...to querendo montar uma banda de blues,alguem se abilita???..falta batera guita e baxo..vocal e guitarra base ja tem...qq coisa da um toque ae galera!!!!!!

jimmypagelf
Veterano
# mai/04
· votar


rules

cara, eu acho que falta tudo na sua banda rsrssr, aonde tu mora?

DeFoDoN
Veterano
# mai/04
· votar


jimmypagelf
uhauhahuuhhua
Agente Smith
basicamente sim....as escalas d blues d outros tons passam por essa escala, soh q eh uma pentatonica essa escala, pelo menos foi issu q eu li em alguns foruns...qm kize mais escalas d blues entra aki...
http://www.cifraclub.com.br/forum/index.php?action=vthread&topic=439 67&forum=3&page=-1

jimmypagelf
Veterano
# mai/04
· votar


DeFoDoN


e verdade

DeFoDoN
Veterano
# mai/04
· votar


jimmypagelf
c vc tive alguma escala poe nesse forum q ainda tah aberto...flwww

jimmypagelf
Veterano
# mai/04
· votar


cara, de blues não, tipo assim e de blues, mas e usado por varios guitarristas nas musicas, tirei essa "pequena"escala de uns dos solos do rei jimi hendrix

jimmypagelf
Veterano
# mai/04
· votar


essa escala e na 5° casa então o dedo indicador fica sempre na 5° casa das cordas mi e si blz

DeFoDoN
Veterano
# mai/04
· votar


jimmypagelf
o rei jimi hendrix num gostava d usa na maioria das musicas a escala de mi???

jimmypagelf
Veterano
# mai/04
· votar


-----------7-5-6-------------
-5---5-6-5-------6----------
---7---------------7--------
-------------------------
----------------------------
-----------------------------

pode ser aplicada em todo braço, pode enventar tb, mas sempre deixando o indicador segurando as duas cordas, eu me amarro nesse projeto de escala, e vc? alguma ai?

jimmypagelf
Veterano
# mai/04
· votar


DeFoDoN


e verdade, mas ele gostava mesmo era de brinca, ou vamos dizer, ele gostava de "improvisar" sacou!!! bem eu acho isso

DeFoDoN
Veterano
# mai/04
· votar


tenhu algumas no tom de mi
----------------------------------------7--9--12-|
-------------------------------5--7--9-----------|
-------------------------4--6--------------------|
----------------2--4--6--------------------------|
----------2--4-----------------------------------|
-0--2--4-----------------------------------------|

-------------------------------------12--14--16-|
-----------------------------12--14-------------|
------------------9--11--13---------------------|
-----------9--11--------------------------------|
-7--9--11---------------------------------------|
------------------------------------------------|

-------------------------7--9-|
----------------5--7--9-------|
----------4--6----------------|
-2--4--6----------------------|
------------------------------|
------------------------------|

DeFoDoN
Veterano
# mai/04
· votar


Todas estas escalas estão no tom de A

|-------------------------------5--8-|
|-------------------------5--8-------|
|-------------------5--7-(8)---------|
|-------------5--7-------------------|
|-------5-(6)-7----------------------|
|-5--8-------------------------------|

|-----------------------------------3--5-|
|--------------------------3-(4)-5-------|
|--------------------2--5----------------|
|--------------2--5----------------------|
|----3--5-(6)----------------------------|
|-5--------------------------------------|

|---------------------------------------12--15-|
|-------------------------------13--15---------|
|-----------------------12--14-----------------|
|----------12-(13)--14-------------------------|
|-12--15---------------------------------------|
|----------------------------------------------|

|---------------------------------10-(11)-12-|
|-------------------------10--13-------------|
|------------------9--12---------------------|
|-----10--12-(13)----------------------------|
|-12-----------------------------------------|
|--------------------------------------------|

|-------------------------------------12--15-|
|-----------------------------13--15---------|
|---------------------12--14-----------------|
|-----10--12-(13)-14-------------------------|
|-12-----------------------------------------|
|--------------------------------------------|
essa eh a q eu mais gosto d usa...uso mto pra blues...fika show...mto loko
jimmypagelf
c tem mais alguma???

DeFoDoN
Veterano
# mai/04
· votar


i tem mais essas

Tom de Lá Menor Harmônico

|----------------------------------------5--6--7-|
|----------------------------------5--6----------|
|-------------------------4--5--7----------------|
|-------------------6--7-------------------------|
|----------5--7--8-------------------------------|
|5--7--8-----------------------------------------|

|-------------------------------------1--4--5-|
|-------------------------------3--5----------|
|---------------------2--4--5-----------------|
|-------------2--3--6-------------------------|
|----2--3--5----------------------------------|
|-5-------------------------------------------|

|---------------------------------------------12--13--15--16-|
|---------------------------------12--13--15-----------------|
|-------------------------13--14-----------------------------|
|-------------12--14--15-------------------------------------|
|-12--14--15-------------------------------------------------|
|------------------------------------------------------------|

|----------------------------------8--10--12-|
|-----------------------9--10--12------------|
|----------------9--10-----------------------|
|-----9--10--12------------------------------|
|-12-----------------------------------------|
|--------------------------------------------|

|----------------------------7--8--10-|
|---------------------9--10-----------|
|-----------7--9--10------------------|
|-7--9--10----------------------------|
|-------------------------------------|
|-------------------------------------|

tom de G

|---------------------------------------------5--7--8-|
|------------------------------------5--7--8----------|
|---------------------------4--5--7-------------------|
|-------------------4--5--7---------------------------|
|----------3--5--7------------------------------------|
|-3--5--7---------------------------------------------|

|----------------------------------------2--3--5---|
|----------------------------------3--5------------|
|-------------------------2--4--5------------------|
|----------------2--4--5---------------------------|
|-------2--3--5------------------------------------|
|-3--5---------------------------------------------|

|------------------------------------------------12--14--15-|
|------------------------------------12--13--15-------------|
|------------------------11--12--14-------------------------|
|-----------10--12--14--------------------------------------|
|-10--12--14------------------------------------------------|
|-----------------------------------------------------------|

|-------------------------------7--8--10--12--14--15-|
|---------------------7--8--10-----------------------|
|---------------7--9---------------------------------|
|-----7--9--10---------------------------------------|
|-10-------------------------------------------------|
|----------------------------------------------------|

|---------------------------------------8--10--12-|
|-------------------------------10--12------------|
|--------------------9--11--12--------------------|
|---------9--10--12-------------------------------|
|-10--12------------------------------------------|
|-------------------------------------------------|

|-----------------------------7--8--10-|
|-------------------7--8--10-----------|
|----------5--7--9---------------------|
|-5--7--9------------------------------|
|--------------------------------------|
|--------------------------------------|

|-------------------------5--7--8-|
|----------------5--7--8----------|
|-------4--5--7-------------------|
|-5--7----------------------------|
|---------------------------------|
|---------------------------------|

jimmypagelf
Veterano
# mai/04
· votar


essa primeira cara, eu achei ela muito fora de tom, partir da si, mas as outras ficou legal

DeFoDoN
Veterano
# mai/04
· votar


jimmypagelf
sei lah....mais num sei....pra mim tah certinhu

jimmypagelf
Veterano
# mai/04
· votar


cara eu tenho uma duvida que eu nunca soube resolver, o que significa esses numeros entre parentes (12) por exemplo

jimmypagelf
Veterano
# mai/04
· votar


DeFoDoN


mas as outras ficou massa, eu me amarro num blues, e massa vc improvisar, mas eae, qual seu blues preferido?

DeFoDoN
Veterano
# mai/04
· votar


jimmypagelf
curto mto improviza em lá....eh meu predileto...lah cum ré...
essa nota entre parenteses eh cmo c fosse....vc pode toka aki ou naum...num tah errado c num toka i num tah errado c toka tbm....intendeu???

jimmypagelf
Veterano
# mai/04
· votar


carra não entendi porra nenhuma, mas em questão de emprovisar eu me amarro nas de DO ou RE, mas enventar tb e meu naip tb,

DeFoDoN
Veterano
# mai/04
· votar


jimmypagelf
num intendeu u q??lá cum ré???c for issu...eh q eu pego a escala d lá e junto cum a de ré...inventa eh loko

jimmypagelf
Veterano
# mai/04
· votar


não e isso cara, mas ja entendi o que vc falow, mas tipo assim, quais bandas vc curte de blues?

Enviar sua resposta para este assunto
        Tablatura   
Responder tópico na versão original