FEAR OF THE DARK - DÚVIDA

    Autor Mensagem
    MAGRO DO BONFA
    Veterano
    # mar/03


    Grande galera,

    Tô tentando tocar Fear of the Dark, do Iron, só que tenho uma dúvida: a parte que tá em negrito não está especificado qual guitarrista toca, ao contrário do resto... Então acho que todos os guitarristas tocam junto, é isso mesmo??
    Mas eu tocando aquela parte (que tá em tablatura, não em cifra) sozinho fica meio estranho... me parece que alí eu deveria continuar tocando o dedilhado da parte que vem logo atrás...

    Ajudem esse pobre baterista que tá tentando fazer um som numas cordas.

    Valeu
    - Iron Maiden
    .álbum
    .música Fear of The Dark

    Intro (distorção)

    E|---------------------------------|------------------- ----------------|
    B|---------------------------------|--------------- -----------------|
    G|-7-----7-7-9-9-10-10-9-9-7-7-9-7-|5-5-----5-5-7- 7--9-9--7-7-5-5--9-5-----|
    D|---7-7---------------------------|---5-5 -----------------------------|
    A|---------------------------------|-- ---------------------------------|
    E|-------------------------------- -|-----------------------------------|
    (duas vezes)

    E|-----------------------------------|---------------------- -----------|
    B|-----------------------------------|------------------ ---------------|
    G|-----------------------------------|-------------- ----------------|
    D|-7-7-----7-7-9-9-10-10-9-9-7-7-9-7-|-5-5-----5-5- 7-7-9-9--7-7-5-5-9-5-|
    A|-----7-7---------------------------|-----5-5 -------------------------|
    E|-----------------------------------|---- -----------------------------|

    E|---------------------------------- -|---------------------------------|
    B|------------------------------ -----|---------------------------------|
    G|-------------------------- ---------|------------------------------|
    D|-7-7-----7-7-9-9-10-10-9- 9-7-7-9-7-|-3-3-----3-3-5-5--7-7--5-5-3-3--7-3-|
    A|-----7-7---------- -----------------|-----3-3-------------------------|
    E|-------------- ---------------------|---------------------------------|

    E|-----------------------------------|
    B|-------------------------- ---------|
    G|-----------------------------------|
    D|-7-7-7-7--3-3-3- 3--5-5-5-5--3-3-5-5|
    A|5-5-5-5--1-1-1-1--3-3-3-3--1-1-3-3-|
    E|------ -------------|
    OS ACORDES SÃO DO VERSO SÃO: D Bb C

    Os acordes são tocados da seguinte forma:


    Guitarra Principal (acústica)

    E|-----------------------------------------------|
    B|------5-6-8-6- 5---------------------5-6-8-6-5--|
    G|---7-----------5--5--3-5-5-10-7- --7----------5
    D|-7---------------5-5-------------7------------|
    A|- ---------------------------------------------|
    E|-------------------- --------------------------|
    (duas vezes)



    D Bb C Bb C D
    __I am a man who walks alone, and when I\'m walking a dark road

    Bb C Bb C D
    at night or strolling through the park

    Dm Bb C F G D
    When the lights begin to change, I sometimes feel a little strange

    Bb C
    a little anxious when it\'s dark
    Bb C Dm C
    Fear of the dark ,____ Fear of the dark,____

    Bb F G Dm
    I have a constant fear that something\'s always near

    Bb C Dm C
    Fear of the dark, ____ Fear of the dark, ____

    Bb F G D
    I have a phobia that someone\'s always there



    refrão: (distorção)


    <-----Repete 3 vezes!!!----->
    E|---------------------------------|----------------------------|
    B|---------------------------------|----------------------------|
    G|---------------------------------|----------------------------|
    D|-----7-7-5-5-7-7-----7-7-5-5-7-7-|-----------------5-5--------|
    A|-5-5-------------5-5-------------|-----5-5-7-7-8-8-----8-8-7--|
    E|---------------------------------|-5-5------------------------|



    Essa é a letra cifrada:


    Dm Bb
    Have you run your fingers down the ____ wall

    C
    And have you felt your neck skin crawl

    Dm
    When you\'re searching for the ____ light?

    Bb
    Sometimes when you\'re scared to take a look

    C
    At the corner of the room

    Bb C Dm C
    Fear of the dark ,____ Fear of the dark,____

    Bb F G Dm
    I have a constant fear that something\'s always near

    Bb C Dm C
    Fear of the dark, ____ Fear of the dark, ____

    Bb F G D
    I have a phobia that someone\'s always there

    Bb C
    Have you ever been alone at night

    Dm C Dm
    Trought you heard footseps behind

    Bb C
    And Turned around and no-one\'s _____ there?

    Am Bb C
    And you quicken up your pace

    F G Dm
    You findi hard to look again

    Bb
    Because you\'re ____ sure there\'s

    C
    Someone there

    Bb C Dm C
    Fear of the dark ,____ Fear of the dark,____

    Bb F G Dm
    I have a constant fear that something\'s always near

    Bb C Dm C
    Fear of the dark, ____ Fear of the dark, ____

    Bb F G D
    I have a phobia that someone\'s always there
    (Repete Intro)


    (depois os solos abaixo)

    Solo 1:

    (A Parte Fácil)

    E|---------------------------------------------|
    B|---------------------------------------------|
    G|-7--7-7-9-10-9~-10-9-7--7--------------------|
    D|--------------------------10-8--8-7-5-7b-7~--|
    A|---------------------------------------------|
    E|---------------------------------------------|

    E|---------------------------------------------|
    B|---------------------------------------------|
    G|-7--7-7-9-10-9~-10-9-7--7----------5-7~------|
    D|--------------------------10-8-7-5-----------|
    A|---------------------------------------------|
    E|---------------------------------------------|

    E|--------------------------------------------------------|
    B|---------------8---------------8------------------------|
    G|---7~---7-9-10---10-9---7-9-10---10-9--7----------------|
    D|-7----7---------------7------------------10-7-7b-7~-----|
    A|--------------------------------------------------------|
    E|--------------------------------------------------------|

    E|--------------------------------------------------------|
    B|---------------8---------------8--------------10b-10~---|
    G|---7~---7-9-10---10-9---7-9-10---10-9--7----------------|
    D|-7----7---------------7------------------10-7-----------|
    A|--------------------------------------------------------|
    E|--------------------------------------------------------|

    --------------------------------------------------------------------------------------

    Solo por Rômulo Teixeira (banda DANUTS) Sorocaba/SP)

    (A Parte Dificil)

    Parte 1(Adrian Smith):

    e|----------------------------------------------|
    B|-----14---------------------------------------|
    G|--12-13----12-14-12^10------10---10^0---------|
    D|------------------------12--------------------|
    A|---------------------------------------10^12--|
    E|----------------------------------------------|


    e|--------------------10-10-10------13--15------|
    B|--------------------10-10-10------------------|
    G|---10-----12-14-------------------------------|
    D|---10-----------------------------------------|
    A|----------------------------------------------|
    A|----------------------------------------------|


    e|-15---13^12-10----10--------------------------|
    B|---------------10----13-11^10-----10----------|
    G|-------------------------------12----12^10----|
    D|-------------------------------------------12-|
    A|----------------------------------------------|
    E|----------------------------------------------|


    e|----------------------------------------------|
    B|----------------------------------------------|
    G|--10----12-----10----10----10^2--------------|
    D|----------------------------------------------|
    A|----------------------------------------------|
    E|----------------------------------------------|


    e|-15-17----15-13^12-13-------------------------|
    B|----------------------13-----------13---------|
    G|--------------------------------12------12^10-|
    D|-----------------------------14---------------|
    A|--------------------------15------------------|
    E|----------------------------------------------|


    e|----------------------------------------------|
    B|----10----------------------------------------|
    G|-12-14---12-14--12^10-------10----------------|
    D|------------------------12--------------------|
    A|----------------------------------------------|
    E|----------------------------------------------|


    e|------13----------------------------------------------|
    B|------13----------------------------------------------|
    G|-(12)-14-(12)-14-12^10----10--------------------------|
    D|-----------------------12----12^10----10--------------|
    A|-----------------------------------12----12--11^10^8--|
    E|------------------------------------------------------|


    e|-----------------------------------------------------|
    B|-----------------------------------------------------|
    G|-----------------------------------------------------|
    D|-----------------------------------------------------|
    A|--10^8-----------------------------------------------|
    E|---------10----10-----10-----------------------0-----|
    Parte 2(Dave Muray):

    e|------19----17----16--17--16^14^16^14------15^14--------------------------|
    B|----------------------------------------17---------17^14^12----14^---------|
    G|------------------------------------------------------------16-------------|
    D|---------------------------------------------------------------------------|
    A|---------------------------------------------------------------------------|
    E|---------------------------------------------------------------------------|


    e|---------------------------------------------------------------------------|
    B|-^17^14----14^17^14----14-15^14----14-15^14----------------14^15-14-17-19--|
    G|--------16----------16----------16----------16^14^13-14^16-----------------|
    D|---------------------------------------------------------------------------|
    A|---------------------------------------------------------------------------|
    E|---------------------------------------------------------------------------|


    e|---------------(17)-15-17^14-----------------------------------------------|
    B|-(17)-15-17^14---------------17^14---15^14----14^17^14---14----------------|
    G|-----------------------------------0-------16----------16---16^14^16^14----|
    D|------------------------------------------------------------------------16-|
    A|---------------------------------------------------------------------------|
    E|---------------------------------------------------------------------------|


    e|------------------------------------------------------19-19-21-------------|
    B|---------------------------------------------------------------------------|
    G|--14-----------------------------14-16-18-16-14-14^6-----------------------|
    D|------16^14-16^14-----------14^16------------------------------------------|
    A|------------------16^16-16-------------------------------------------------|
    E|---------------------------------------------------------------------------|


    e|----21----21----20----17^16------------------------------------------------|
    B|-----------------------------17------------14^15^16------------------------|
    G|---------------------------------16^14^16----------------------------------|
    D|---------------------------------------------------------------------------|
    A|---------------------------------------------------------------------------|
    E|---------------------------------------------------------------------------|


    e|-14^17^16^14----14^16^14---------------------------------------------------|
    B|-------------17----------17^15^14--14^15^14--14^15^14----------------------|
    G|-----------------------------------------------------16^18--18^19^18^19^18-|
    D|---------------------------------------------------------------------------|
    A|---------------------------------------------------------------------------|
    E|---------------------------------------------------------------------------|


    e|---------------------------------------------------------------------------|
    B|--------------------------------------------------------------14--19-------|
    G|-19---18^19^18^16-18---16^18^16^14-16---14^16^14^13-14-----14--------------|
    D|--------------------------------------------------------16-----------------|
    A|---------------------------------------------------------------------------|
    E|---------------------------------------------------------------------------|


    e|--------------------------------------------------------------------------|
    B|---19---14^19^14-------------14-19-19-------------------------------------|
    G|------------------14------14----------------------------------------------|
    D|----------------------14--------------------------------------------------|
    A|--------------------------------------------------------------------------|
    E|--------------------------------------------------------------------------|

    Pro-Solo:

    E|---------------------------------------------------------------------------
    B|-------10-6-8~-------10-6-8-6----------------------------------------------
    G|-7-7-7---------7-7-7----------------10-7-9~-------10-7-9-5--------7-3-5----
    D|------------------------------8-8-8---------8-8-8-----------5-5-5----------
    A|---------------------------------------------------------------------------
    E|---------------------------------------------------------------------------

    E|---------------------------------------------------------------------------
    B|---------------------------------------------------------------------------
    G|-------10-7-9-------7----7-5---5-7---7-5---5-------------------------------
    D|-7-7-7--------10-7--7--7-----7-----7-----7---------------------------------
    A|---------------------------------------------------------------------------
    E|---------------------------------------------------------------------------

    --------------------------------------------------------------------------------------

    Solo 2:


    E|---------------------------------------------------------------------------|
    B|-------10-6-8~-------10-6-8-6----------------------------------------------|
    G|-7-7-7---------7-7-7----------------10-7-9~-------10-7-9-5--------7-3-5----|
    D|------------------------------8-8-8---------8-8-8-----------5-5-5----------|
    A|---------------------------------------------------------------------------|
    E|---------------------------------------------------------------------------|

    E|----------------------------------------------------|
    B|----------------------------------------------------|
    G|-------10-7-9-------7----7-5---5-7---7-5---5--------|
    D|-7-7-7--------10-7--7--7-----7-----7-----7----------|
    A|----------------------------------------------------|
    E|----------------------------------------------------|


    (depois repete \"Guitarra Principal\")


    Dm A Dm
    (Fear of The Dark, fear of the dark) <---------- 8x!!!


    Dm Bb C
    Watching horrors films teh night before

    F G Dm
    Deabting ______ witches and folklore

    Bb C
    The unknown troubles on your mind

    Dm Bb C
    Maybe your mind is playng tricks

    F G Dm
    You Sense, and suddenly eyes ____ fix

    Bb C
    On Dancing shadows from behind

    Bb C Dm C
    Fear of the dark ,____ Fear of the dark,____

    Bb F G Dm
    I have a constant fear that something\'s always near

    Bb C Dm C
    Fear of the dark, ____ Fear of the dark, ____

    Bb F G D
    I have a phobia that someone\'s always there


    Bb C Dm C
    Fear of the dark ,____ Fear of the dark,____

    Bb F G Dm
    I have a constant fear that something\'s always near

    Bb C Dm C
    Fear of the dark, ____ Fear of the dark, ____

    Bb F G D
    I have a phobia that someone\'s always there


    (repete intro)


    (obs: esse finalzinho fica no som da \"guitarra principal\")

    When I\'m walking a dark road
    I am a man who walks alone
    Acordes: Bb: x13331
    F: 133211
    G: 320033 ou 355433
    D: xx0232 ou x57775
    Dm: xx0231 ou x57765
    C: x32010 ou x35553
    A: x02220 ou 542225

    Max
    Veterano
    # mar/03
    · votar


    cara acho q um faz a parte q ta atras e outro tocas a quinta e a quarta corda de cada acorde fazendo pestana...ve se da certo...
    é quinta quarta quinta quarta quinta quarta....tres vezes em cada acorde e na volta é duas vezes...quinta quarta quinta quarta...em cada...valeu

    MAGRO DO BONFA
    Veterano
    # mar/03
    · votar


    Max

    Valeu, vou tentar

    Guitar Boy
    Veterano
    # mar/03
    · votar


    seguinte essa parte é dedilhada....vc afz o acorde no formatro de bicorde (power chord com 2 notas) e bate alternadamente em cada corda.....tipo, num manjo afzer essas tabs aki, ams vo tentar agora......
      D             Bb            ec...
    
    E|---------------------------------------------|
    B|---------------------------------------------|
    G|-----7---7---7----3---3---3------------------|
    D|---5---5---5----1---1---1--------------------|
    A|---------------------------------------------|
    E|---------------------------------------------|


    Guitar Boy
    Veterano
    # mar/03
    · votar


    tipo.......errei as cordas..o certo é estarem uma corda abixo todas as notas..hehee

    Max
    Veterano
    # mar/03
    · votar



    D|-----7---7---7----3---3---3------------------|
    A|---5---5---5----1---1---1--------------------|


    so pra arruma...é nas cordas de cima guitar boy

    Guitar Boy
    Veterano
    # mar/03
    · votar


    é isso ae!!

    MAGRO DO BONFA
    Veterano
    # mar/03
    · votar


    Guitar Boy

    Desculpa a minha ignorância, mas com o Iron tem 3 guitarristas, e no trecho em questão um faz o dedilhado, o outro faz os acordes e o outro faz o que?? Acordes tbém??

    Max
    Veterano
    # mar/03
    · votar


    o outro acho q faz a mesma parte MAGRO DO BONFA
    ou nao toca...ou faz a terca...nunca percebi...

    MAGRO DO BONFA
    Veterano
    # mar/03
    · votar


    Max

    Por essas coisas que Iron é uma banda foda! Eles tocam muito.

    Guitar Boy
    Veterano
    # mar/03
    · votar


    naum, naum se faz acorde nessa parte é od edilhado q manda......o baixo faz isso tbm e na versão do rock in rio tem até um tecladinho acompanhando,mas as guitarras foicam nisso

    MAGRO DO BONFA
    Veterano
    # mar/03
    · votar


    Guitar Boy

    Ñ se faz acorde?? todas guitarras dedilham ou só uma, na tua opinião?

    Guitar Boy
    Veterano
    # mar/03
    · votar


    bom, c eu naum me engano eles tocam com todas dedilhando, mas nessa parte o som das guitarras é bem suave...c vc for tocar num banda ae com 3 guitarras pode ser q o som fico muito forte

      Enviar sua resposta para este assunto
              Tablatura   
      Responder tópico na versão original
       

      Tópicos relacionados a FEAR OF THE DARK - DÚVIDA