preciso das tablaturas dos temas do fantastico e a

    Autor Mensagem
    pretender
    Veterano
    # abr/04


    I ae galera???? to precisando muito das tablaturas dos temas do fantastico e da vitoria do airton senna. quem puder me fornecer vu ficar muito agradecido.

    adrian
    Veterano
    # abr/04
    · votar


    AIRTON SENNA


    C G F C G F
    e|--3-3--3--3-3--1--3-3--3--3-3--1--|
    B|--5-5--3--3-3--1--5-5--3--3-3--1--|
    G|--5-5--4--4-4--2--5-5--4--4-4--2--|
    D|--5-5--5--5-5--3--5-5--5--5-5--3--|
    A|----------------------------------|
    E|----------------------------------|

    e|--4--4-5-7-5-4-2--2--2-4-5-4-2-0--4--4-5-7-5-4-2--5-2-2--2-4-5-4-2-0 --|
    B|-------------------------------------------------------------------- --|
    G|-------------------------------------------------------------------- --|
    D|-------------------------------------------------------------------- --|
    A|-------------------------------------------------------------------- --|
    E|-------------------------------------------------------------------- --|


    C G F C G F
    e|--3-3--3--3-3--1--3-3--3--3-3--1--|
    B|--5-5--3--3-3--1--5-5--3--3-3--1--|
    G|--5-5--4--4-4--2--5-5--4--4-4--2--|
    D|--5-5--5--5-5--3--5-5--5--5-5--3--|
    A|----------------------------------|
    G|----------------------------------|

    e|--4--4-5-7-5-4-2--2--2-4-5-4-2-0--4--4-5-7-5-4-2--5-2-2--2-4-5-4-2-0 --|
    B|-------------------------------------------------------------------- --|
    G|-------------------------------------------------------------------- --|
    D|-------------------------------------------------------------------- --|
    A|-------------------------------------------------------------------- --|
    E|-------------------------------------------------------------------- --|





    Versão 2
    --------
    Ayrton Senna - Tema da vitória
    By: GuS
    E D C A
    E|-3---------------------------------------------------------|
    A|-------------------------------------3--3-----3------------|
    D|---2--2-3-3-2-0--3-----3-0--0-2-3-2-0----0-2-0-------------|
    G|---------0--------0-2-0--------------------------2-------2-|
    B|-----------------------------------------------0---0-1-0---|
    e|-----------------------------------------------------------|
    B A E A E
    E|-----------------------------------------------------------|
    A|------------------------------------3----------------------|
    D|-----------------3-------3-2-0--3-2------------------------|
    G|-----0-2---2-0-2---0-2-0--------------2-2------------------|
    B|--0------0--------------------------------0-1-3-1-3--------|
    e|----------------------------------------------------0------|
    D A C B ( C ) G (Bb) F
    E|------------------------0-0---3----1-1--1------------------|
    A|------------------------3-3---2----1-1--3------------------|
    D|------------------------2-2---0----3-3--3------------------|
    G|--------------2-5-4-----0-0---0----3-3--2------------------|
    B|-----------3------------1-1---3----3-3--1------------------|
    e|-0-1-3-1-0--------------0-0---3----1-1--1------------------|

    adrian
    Veterano
    # abr/04
    · votar


    AI CARA MONTEI + OU - DO AIRTON DÁ PRA BRINCAR,,

    adrian
    Veterano
    # abr/04
    · votar


    SAIU MEIO TORTO AI AS LINHAS, ALGUNS NUMEROS SAIRAM EM CIMA DOS OUTROS, MAIS POR ESSA BASE DA PRA VC TIRAR ELA DIREITO.....QUALQUER COISA TE MANDO ELA POR E - MAIL..SOH ME PASSA

    Motley Crue
    Veterano
    # abr/04 · Editado por: Motley Crue
    · votar


    AIRTON SENNA


    C G F C G F
    e|--3-3--3--3-3--1--3-3--3--3-3--1--|
    B|--5-5--3--3-3--1--5-5--3--3-3--1--|
    G|--5-5--4--4-4--2--5-5--4--4-4--2--|
    D|--5-5--5--5-5--3--5-5--5--5-5--3--|
    A|----------------------------------|
    E|----------------------------------|

    e|--4--4-5-7-5-4-2--2--2-4-5-4-2-0--4--4-5-7-5-4-2--5-2-2--2-4-5-4-2-0 --|
    B|-------------------------------------------------------------------- --|
    G|-------------------------------------------------------------------- --|
    D|-------------------------------------------------------------------- --|
    A|-------------------------------------------------------------------- --|
    E|-------------------------------------------------------------------- --|


    C G F C G F
    e|--3-3--3--3-3--1--3-3--3--3-3--1--|
    B|--5-5--3--3-3--1--5-5--3--3-3--1--|
    G|--5-5--4--4-4--2--5-5--4--4-4--2--|
    D|--5-5--5--5-5--3--5-5--5--5-5--3--|
    A|----------------------------------|
    G|----------------------------------|

    e|--4--4-5-7-5-4-2--2--2-4-5-4-2-0--4--4-5-7-5-4-2--5-2-2--2-4-5-4-2-0 --|
    B|-------------------------------------------------------------------- --|
    G|-------------------------------------------------------------------- --|
    D|-------------------------------------------------------------------- --|
    A|-------------------------------------------------------------------- --|
    E|-------------------------------------------------------------------- --|





    Versão 2
    --------
    Ayrton Senna - Tema da vitória
    By: GuS
    E D C A
    E|-3---------------------------------------------------------|
    A|-------------------------------------3--3-----3------------|
    D|---2--2-3-3-2-0--3-----3-0--0-2-3-2-0----0-2-0-------------|
    G|---------0--------0-2-0--------------------------2-------2-|
    B|-----------------------------------------------0---0-1-0---|
    e|-----------------------------------------------------------|
    B A E A E
    E|-----------------------------------------------------------|
    A|------------------------------------3----------------------|
    D|-----------------3-------3-2-0--3-2------------------------|
    G|-----0-2---2-0-2---0-2-0--------------2-2------------------|
    B|--0------0--------------------------------0-1-3-1-3--------|
    e|----------------------------------------------------0------|
    D A C B ( C ) G (Bb) F
    E|------------------------0-0---3----1-1--1------------------|
    A|------------------------3-3---2----1-1--3------------------|
    D|------------------------2-2---0----3-3--3------------------|
    G|--------------2-5-4-----0-0---0----3-3--2------------------|
    B|-----------3------------1-1---3----3-3--1------------------|
    e|-0-1-3-1-0--------------0-0---3----1-1--1------------------|



    soh dando uma arrrumada pra ficar melhor.. =)

    Motley Crue
    Veterano
    # abr/04
    · votar


    adrian
    dica: quando vc for postar uma tab coloque
     no comeco dela e 
    no final... pras linhas ficarem todas certas... ;)

    Motley Crue
    Veterano
    # abr/04
    · votar


    bosta..... saiu errado.. e num dah pra editar...

    eh soh vc colocar [ T ] [ /T ]
    sem esses espacos entre as chaves e o T, no comeco e no final das tabs..

      Enviar sua resposta para este assunto
              Tablatura   
      Responder tópico na versão original
       

      Tópicos relacionados a preciso das tablaturas dos temas do fantastico e a