KISS

    Autor Mensagem
    MrPostman
    Veterano
    # mar/03


    Alguém manja tocar Hard Luck Woman?

    postem pelo menos a introdução ae!!!

    To postando na parte de guitar e violão pq naum sei qual seria mais apropriado...

    Ps1c0
    Veterano
    # mar/03
    · votar


    Eu tenho ela aki!!calma q eu ja te arranjo!!

    Ps1c0
    Veterano
    # mar/03
    · votar


    tipow!!manda meio tom abaixo na afinação!!

    eu toco em 4/4 mas acho q tbm dah em 3/4!!

    aki eu coloco um Dm e vo dando slides down:


    --------------|--------1--1/3--|--3\1--1----------------|------------ -----------
    
    --------------|--------3--3-5--|--5-3--3----------------|-----1--1--- -1---------
    --------------|--------2--2-4--|--4-2--2----------------|-----0--0h2- -0---------
    ---------0h2--|--0-----0-------|-------------------0h2--|-----2------ ----2------
    ---0--3-------|----------------|-------------0--3-------|--3--------- -----------
    3-------------|----------------|----------3-------------|------------ -----------

    C
    C7 Dm E F7 G7
    ---|-----0----------------|-----1--1-----0--0--|-----1--1-----3--3-- |--0--------
    ---|-----1----------------|-----3--2-----0--0--|-----1-- 1-----3--3--|--1--------
    ---|-----0----------------|-----2--3-----0-- 0--|-----2--2-----4--4--|--0--------
    0--|--2--2-----------0h2--|--0-- ------2--------|--3--------5--------|--2--------
    ---|--3--3-----0--3- ------|--------------------|--------------------|--3--------
    ---|---- ----3-------------|--------------------|--------------------|--------- --



    --------12h13p12--------------12------|----------------------------- ------------
    ----13------------13------13------13--|----------------- ------------------------
    12--------------------12--------------|----- ------------------------------------
    -------------------------------- ------|-----------------------------------------
    -------------------- ------------------|-----------------------------------------
    -------- ------------------------------|--------------------------------------- --


    If ever I'd met you if ever i'd seen you cry
    ----------|------1-----1/3--|--3\1--1---------------|---0-----------------------
    ----------|------3-----3-5--|--5-3--3---------------|---1--------1--1----1------
    ----------|------2-----2-4--|--4-2--2---------------|---0--------0--0h2--0------
    ----------|------0----------|-----------------------|---2--------2--------------
    ----------|-----------------|-----------------------|---3-----------------------
    ----------|-----------------|-----------------------|---------------------------


    If not for first
    ------|--0-----------------|------1--1-----0--0--|-----1--1-----3--3--|--0------
    ------|--1-----------------|------3--2-----0--0--|-----1--1-----3--3--|--1------
    ------|--0-----------------|------2--3-----0--0--|-----2--2-----4--4--|--0------
    2--0--|--2------------0h2--|---0--------2--------|--3--------5--------|--2------
    ------|--3------0--3-------|---------------------|--------------------|--3------
    ------|------3-------------|---------------------|--------------------|---------


    I keep tellin' you hard luck woman you'll be a hard luck
    -------------------|---1------0------1-----|------------------|---1------0------
    -------------------|---1------0------3-----|------------------|---1------0------
    -------------------|---2------0------2-----|------------------|---2------0------
    -------------------|---3------2------0-----|------------------|---3------2------
    -------------------|-----------------------|------------------|-----------------
    -------------------|-----------------------|------------------|-----------------






    woman you'll be a hard luck woman baby 'til you
    ----1-----|------------------|---1------0------1--------|---1-------------------
    ----3-----|------------------|---1------0------3--------|---1-------------------
    ----2-----|------------------|---2------0------2--------|---2-------------------
    ----0-----|------------------|---3------2------0--------|---3-------------------
    ----------|------------------|--------------------------|---3-------------------
    ----------|------------------|--------------------------|---1-------------------


    find your man
    -3--------|---0-----------------------------------------------------------------
    -3--------|---1-----------------------------------------------------------------
    -4--------|---0-----------------------------------------------------------------
    -5--------|---2-----------------------------------------------------------------
    -5--------|---3-----------------------------------------------------------------
    -3--------|---------------------------------------------------------------------


    e tem uma q fui eu q tirei!!boa naum ficou mas até q eh loka!!

    -------------0-0-0-0-0-0-0-0-0-0-----
    
    -------------3-3-3-3-1-2-2-2-2-3-----
    -------------2-2-2-2---3-3-3-3-2----
    --------2-0--0-0-0-0-----------0--
    ----0-3----------------------
    -0-3-------------------------

    -0-1-3-0----------3-3-3-3-3--1-1------
    -0-1-3-1------3/5--5-5-5-5-5-3-3--------
    -0-2-0-0------------------------
    -2-3-0-2-----------------------
    -2-3-x-3-----------------------
    -0-1-3------------------------

    ---------------------------
    ---------------------------
    ---------------------------
    -5h7-5-------------------------
    ------7-5---------3-5/7-5v------
    ----------8----3-5------------

    ---------------------------13p12----12
    --------------------------------13----13--
    ----------------------------------12-----
    ---------------------------
    ----3-5/7-5-3v----5-7-8-10-------------
    -3-5-------------------------

    --0-0-0-0-0-0-0-0-0-0--3-1---1
    --3-3-3-3-1-2-2-2-2-3--5-1-3-0
    --2-2-2-2---3-3-3-3-2--4-2-0-2
    --0-0-0-0-----------0---2-3-0-3
    -----------------------------x
    -----------------------------3

    -----1-1-0-0-0-0------1-----------
    -----1-1-3-3-3-3------1-3----------
    -2X--2-0-2-2-2-2------2-0------------
    -----3-2-0-0-0-0------3-0----------
    -------------------------x--
    -------------------------3--

    -----------0-0-0-0-1--1--1--1--------0-1
    -1-1-1-1--3-3-3-3-1--1--1---1--3--1-3-1-3---
    -0-0-0-0--2-2-2-2-2--2--2---2--0--0-2-2-0---
    -2-2-2-2--0-0-0-0-3--3--3---3--0--2-0-3-0----
    -3-3-3-3-----------3--3--3---3--x--3-----x
    -------------------1--1---1--1--3---------3


    Ps1c0
    Veterano
    # mar/03
    · votar


    tenta tocar as duas e depois me fala oq vc achou ae!!

      Enviar sua resposta para este assunto
              Tablatura   
      Responder tópico na versão original
       

      Tópicos relacionados a KISS