Usar Pentatonica em arpeggios

    Autor Mensagem
    O mistura
    Veterano
    # abr/04


    Usar Pentatonica em arpeggios

    LeandroP
    Moderador
    # abr/04
    · votar


    ?

    RaphaRhoads
    Veterano
    # abr/04
    · votar


    jah ouviu painkiller?

    LeandroP
    Moderador
    # abr/04
    · votar


    ?

    stratopeido
    Veterano
    # abr/04
    · votar


    apareceu na guitar player acho uns arpejos em forma d pentatonica, mas eu pessoalmente acho uma bosta

    LeandroP
    Moderador
    # abr/04
    · votar


    Não é arpejo em forma de pentatônica. São arpejos baseados em tétrades, somente. Mas pelo desenho lembram uma pentatônica com sweep.

    Sem nocao
    Veterano
    # abr/04
    · votar


    LeandroPanucci
    Isso mesmo!!!

    Acho q da pra fazer uns sweeps na penta ...

    Homem Cueca
    Veterano
    # abr/04
    · votar


    dah pra fazer um arpeggio com as 5 notas da escala pentatonica...por exemplo em Em

    e----------------12-15~~~~-------------------------------
    B-------------12-----------------------------------------
    G----------14--------------------------------------------
    D-------12-----------------------------------------------
    A----14--------------------------------------------------
    E-12-----------------------------------------------------

    uma penta com todas as suas notas em arpeggios.

    LeandroP
    Moderador
    # abr/04
    · votar


    Sem nocao

    dá sim... quem curte Edu Ardanuy sabe disso.

    Sem nocao
    Veterano
    # abr/04
    · votar


    Homem Cueca

    Putz pra mim isso é complicado...
    Deixa eu temtar aki...

    Homem Cueca
    Veterano
    # abr/04
    · votar


    Sem nocao
    o_O

    Sem nocao
    Veterano
    # abr/04
    · votar


    Homem Cueca
    huahuahuahuahhau
    Nem é tao dificil realmente...
    é q o desenho pareceu conplicado...

    Sem nocao
    Veterano
    # abr/04
    · votar



    e------------15--------------------------------
    B----------12------------------------------------
    G--------12----------------------------------------
    D------12--------------------------------------------
    A----12------------------------------------------------
    E--12----------------------------------------------------


    Sem nocao
    Veterano
    # abr/04
    · votar


    Pronto!!!

    Um Arpejo na penta!!!


    Ta bom podem tirar sarro...

    Homem Cueca
    Veterano
    # abr/04
    · votar


    Sem nocao
    esse jeito fica mto fácil...

    DmS
    Veterano
    # abr/04
    · votar


    No meio da primeira tablatura ta o começo da for the love of god do steve vai, tinha acabado d ouvir a música e fui fazer o exercício postado, achei q conhecia o som d algum lugar :D

    Sem nocao
    Veterano
    # abr/04
    · votar


    Homem Cueca
    Uai entao vamo deixa mais dificil!!!!


    e-----------------------------------12h15p12----------------
    B-----------------------15p12-------------------------------
    G-----------------12h14-------14p12-------------------------
    D--------------14-------------------------------------------
    A-----14----12----------------------------------------------
    E--12----12-------------------------------------------------


    Vamos la Homem Cueca Vamos aos Licks!!!

    Agente Smith
    Veterano
    # abr/04
    · votar


    Num é tão complicado não, é ben comum em blues:


    e-----------7-10b~~--10p7--10p7------------------------
    B---------7--------------10-----10---------------------
    G-------7--------------------------9-------------------
    D-----9------------------------------7~\---------------
    A------------------------------------------------------
    E------------------------------------------------------


    O mistura
    Veterano
    # abr/04
    · votar


                                  t
    
    e--------------------12-15-17-19-22-19-17-15-12/10-------
    B-----------------12-------------------------------------
    G--------------12----------------------------------------
    D-----------14-------------------------------------------
    A--------14----------------------------------------------
    E--12-15-------------------------------------------------

    Um dos licks q o Edu Ardanuy usa

    O mistura
    Veterano
    # abr/04
    · votar


    o tapping é na casa 22

      Você não pode enviar mensagens, pois este tópico está fechado.
       

      Tópicos relacionados a Usar Pentatonica em arpeggios