Raul seixas

    Autor Mensagem
    Cabiludo
    # ago/02


    alguém sabe Clinica tobias blues do Raul completa, com solo e base (em tab)

    Anônimo
    # nov/02


    a:teste


    NowhereMan
    Veterano
    # dez/05
    · votar


    Poutz cara, não sei não.

    Minow
    Veterano
    # dez/05
    · votar


    Raul seixas

    quem?

    Sandoval Quaresma
    Membro Novato
    # 28/fev/19 18:15
    · votar


    Alguém sabe tocar com todos os detalhes de violão a musica cachorro urubu? E se souber poderia posta as tabs?

    LeandroP
    Moderador
    # 28/fev/19 19:07
    · votar


    Sandoval Quaresma

    Cara, eu nunca parei pra tirar ela nota por nota.

    A harmonia dela é bem simples, e o compasso é ternário.

    A introdução é mais ou menos dessa maneira:


    G D C G
    .
    E------------10--7-----|----------7--5-----|----------5--3-----|-----------3------|
    B--8----10-8--------8--|--7----5--------7--|--5----3--------5--|--0-----0--3------|
    G----------------------|-------------------|-------------------|--0--0------------|
    D--9-------------------|--7----------------|--5----------------|--0---------------|
    A----------------------|-------------------|-------------------|------------------|
    E----------------------|-------------------|-------------------|------------------|


    Depois, se não me engano, a harmonia muda.


    Baby essa história é cumprida, ela não tem saída...
    .
    ||: G | F | C | D | C | G :|| G7 |



    E todo o jornal que eu leio me diz que a gente já era...
    .
    ||: C | Bm | C | Bm | C | Bm |
    .
    | A7 | A7 | D7 | D7/F# ||



    e---------------------
    B--3-------------0----
    G----5--4--0--2------- arranjo do breque depois do acorde D7
    D---------------------
    A---------------------
    E---------------------


    Repete a música toda e termina com a introdução.

    Basicamente a introdução se utiliza do CAGED pra desenvolver a maleodia.

    O acorde G é feito com a pestana na 7a casa, usando o mesmo desenho do acorde C tradicional.

    O acorde D e C são os da 5a e 3a casa respectivamente, e resolve num acorde G tradicional de cordas soltas.

    Espero poder ter lhe ajudado com uma linha certa, porque como eu disse, nunca parei pra tirar ela como ela é de fato.

    Sandoval Quaresma
    Membro Novato
    # 28/fev/19 19:17
    · votar


    LeandroP
    Muito obrigado

      Enviar sua resposta para este assunto
              Tablatura   
      Responder tópico na versão original
       

      Tópicos relacionados a Raul seixas