love gun

    Autor Mensagem
    StarChild
    Veterano
    # fev/04


    love gun

    bocao
    Veterano
    # fev/04
    · votar


    Detroit Rock City

    Gab
    Veterano
    # fev/04
    · votar


    LOVE GUN (from the KISS CD "LOVE GUN")
    
    --------------------

    Transcribed by Emil Ortenmark, emil@kissasylum.com

    Tuned down 1/2-step

    Comments: This isn't quite tuned to Eb, it's a smidgen lower. The easy way
    to get past that is to tune to the album. Not much happens on this track. The
    riff stays pretty much the same throughout. I'm not sure whether Rhy. Fig 2b,
    which is definitely there during the intro, is also played during the chorus
    or if both guitars play the same thing there. When the harmony guitars turn
    up towards the end I'm not 100% but I think that the second harmony (starting
    on the 19th fret) is doubled an octave down (which would then be the same as
    the first harmony).


    Key:
    / = slide up
    \ = slide down
    b = bend (whole step)
    b^ = bend (1/2 step)
    b^^ = bend (1 1/2 steps)
    pb = pre-bend
    r = release-bend
    t = tap with righthand finger
    h = hammer-on
    p = pull-off
    ~ = Vibrato
    * = Natural Harmonic
    #(#) = Trill
    ** = Artificial Harmonic
    x = Dead notes (no pitch)
    P.M. = Palm mute (- -> underneath indicates which notes)
    (\) = Dive w\bar
    (/) = Release w\bar
    Tp = Tap w\plectrum
    Rhythm Fig. 1a

    Eb|---------------------------------------------------|
    Bb|---------------------------------------------------|
    Gb|--9-9-9-9---9-9-9-9---9-9-9-9-9-9-9----------------|
    Db|--9-9-9-9---9-9-9-9---9-9-9-9-9-9-9----------------|
    Ab|--7-7-7-7---7-7-7-7---7-7-7-7-7-7-7----------------|
    Eb|---------------------------------------------------|
    Rhythm Fig. 1b

    Eb|---------------------------------------------------|
    Bb|---------------------------------------------------|
    Gb|--9-9-9-9---9-9-9-9---9-9-9-9-9-9-9-9-9-9----------|
    Db|--9-9-9-9---9-9-9-9---9-9-9-9-9-9-9-9-9-9----------|
    Ab|--7-7-7-7---7-7-7-7---7-7-7-7-7-7-7-7-7-7----------|
    Eb|---------------------------------------------------|

    Rhythm Fig. 2a

    Eb|---------------------------------------------------|
    Bb|---------------------------------------------------|
    Gb|--9--------------x---12----14----12----7-----------|
    Db|--9--------------x---12----14----12----7-----------|
    Ab|--7--------------x---10----12----10----5-----------|
    Eb|---------------------------------------------------|
    Eb|---------------------------------------------------|
    Bb|---------------------------------------------------|
    Gb|--5------------------------x-/9----7---------------|
    Db|--5------------------------x-/9----7---------------|
    Ab|--3------------------------x-/7----5---------------|
    Eb|---------------------------------------------------|
    Rhythm Fig. 2b

    Eb|---------------------------------------------------|
    Bb|---------------------------------------------------|
    Gb|--9------------------------------7-----------------|
    Db|--9------------------------------7-----------------|
    Ab|--7------------------------------5-----------------|
    Eb|---------------------------------------------------|



    Eb|---------------------------------------------------|
    Bb|---------------------------------------------------|
    Gb|--5------------------------x-/9----7---------------|
    Db|--5------------------------x-/9----7---------------|
    Ab|--3------------------------x-/7----5---------------|
    Eb|---------------------------------------------------|
    Rhythm Fig. 3a

    Eb|---------------------------------------------------|
    Bb|---------------------------------------------------|
    Gb|--9------------------------x--12\---7--------------|
    Db|--9------------------------x--12\---7--------------|
    Ab|--7------------------------x--10\---5--------------|
    Eb|---------------------------------------------------|



    Eb|---------------------------------------------------|
    Bb|---------------------------------------------------|
    Gb|--9------------------------x--12\------------------|
    Db|--9------------------------x--12\---5--------------|
    Ab|--7------------------------x--10\---5--------------|
    Eb|------------------------------------3--------------|



    Eb|---------------------------------------------------|
    Bb|---------------------------------------------------|
    Gb|--5--------------7---------------9-----------------|
    Db|--5--------------7---------------9-----------------|
    Ab|--3--------------5---------------7-----------------|
    Eb|---------------------------------------------------|




    Rhythm Fig. 3b

    Eb|-(7)-----------------------------------------------|
    Bb|--8--------------------------15\---10--------------|
    Gb|--9--------------------------12\---7---------------|
    Db|--9------------------------------------------------|
    Ab|---------------------------------------------------|
    Eb|---------------------------------------------------|



    Eb|-(7)-----------------------------------------------|
    Bb|--8--------------------------15\---8---------------|
    Gb|--9--------------------------12\---7---------------|
    Db|--9------------------------------------------------|
    Ab|---------------------------------------------------|
    Eb|---------------------------------------------------|



    Eb|-------------------------------(7)-----------------|
    Bb|--5--------------7--------------8------------------|
    Gb|--5--------------7--------------9------------------|
    Db|--5--------------7--------------9------------------|
    Ab|---------------------------------------------------|
    Eb|---------------------------------------------------|



    Rhythm Fig. 4

    Eb|---------------------------------------------------|
    Bb|--1-----------7-----------8------------------------|
    Gb|--2-----------7-----------9------------------------|
    Db|--2-----------7-----------9------------------------|
    Ab|--0-----------5-----------7------------------------|
    Eb|---------------------------------------------------|



    Eb|---------------------------------------------------|
    Bb|--1-----------7------------------------------------|
    Gb|--2-----------7------------------------------------|
    Db|--2-----------7------------------------------------|
    Ab|--0-----------5------------------------------------|
    Eb|---------------------------------------------------|

    Solo

    Eb|------------------------------------------------------------------|
    Bb|------------------------------------------------------------------|
    Gb|--------------------------------------------------12----12-14-12--|
    Db|--------------------------------12----12-14-12-14----14-----------|
    Ab|-----10----10-12-10-12-14-12-14----14-----------------------------|
    Eb|--12----12--------------------------------------------------------|

    Eb|-----------------------------------------17----17-19-17----19-17--|
    Bb|--------------15----15-17-15-17-20-17-20----20----------20--------|
    Gb|--14-16-14-16----16-----------------------------------------------|
    Db|------------------------------------------------------------------|
    Ab|------------------------------------------------------------------|
    Eb|------------------------------------------------------------------|

    Eb|-----22----19----22--22b--22b--22b--22b--22b--22b--22b------------|
    Bb|--20--------------------------------------------------------------|
    Gb|------------------------------------------------------------------|
    Db|------------------------------------------------------------------|
    Ab|------------------------------------------------------------------|
    Eb|------------------------------------------------------------------|

    Eb|----------------------------------------------12--------12--------|
    Bb|----------------------------------------------12--------12--------|
    Gb|--14b---14b---14b---14b-r14--12--------14b--------14b-------------|
    Db|--------------------------------(14)------------------------------|
    Ab|------------------------------------------------------------------|
    Eb|------------------------------------------------------------------|

    Eb|--15-12-14-12----12-------12--------12--15-12-14-12----12---------|
    Bb|--------------15----------12--------12--------------15------------|
    Gb|--------------------14b-------14b---------------------------------|
    Db|------------------------------------------------------------------|
    Ab|------------------------------------------------------------------|
    Eb|------------------------------------------------------------------|
    < - - - - - - - - - 5x - - - - - - - - >
    Eb|--------12---------12--------12---------------12------------------|
    Bb|--------12---------12--------12-----------12-----15-12-15-12------|
    Gb|--14b-------14b--------14b---------14b-----------------------14---|
    Db|------------------------------------------------------------------|
    Ab|------------------------------------------------------------------|
    Eb|------------------------------------------------------------------|

    Eb|------------------------------------------------------------------|
    Bb|--12--------------------------------------------------------------|
    Gb|-----14-12-14-12-11-----------------------------------------------|
    Db|--------------------14~-------------------------------------------|
    Ab|------------------------------------------------------------------|
    Eb|------------------------------------------------------------------|

    Eb|--12--------------------------------------------------------------|
    Bb|-----15-12-15-12----12--------------------------------------------|
    Gb|-----------------14----14-12-14-12-11-12~-------------------------|
    Db|------------------------------------------------------------------|
    Ab|------------------------------------------------------------------|
    Eb|------------------------------------------------------------------|
    | |
    | |
    | |
    Eb|------------------------------------------------------------------|
    Bb|--12--------------------------------------------------------------|
    Gb|-----14-12-14-12-11-12-11----11-----------------------------------|
    Db|--------------------------14----14-12-14~-------------------------|
    Ab|------------------------------------------------------------------|
    Eb|------------------------------------------------------------------|

    Eb|--12--------------------------------------------------------------|
    Bb|-----15-12-15-12----12--------------------------------------------|
    Gb|-----------------14----14-12-14-12-11-12~-------------------------|
    Db|------------------------------------------------------------------|
    Ab|------------------------------------------------------------------|
    Eb|------------------------------------------------------------------|
    | |
    | |
    | |
    Eb|--19-17----17-----------------------------------------------------|
    Bb|--------20----20-19-20-19-17-19-17--------------------------------|
    Gb|-----------------------------------19-16~-------------------------|
    Db|------------------------------------------------------------------|
    Ab|------------------------------------------------------------------|
    Eb|------------------------------------------------------------------|
    * Might be double an octave below


    Eb|--12--------------------------------------------------------------|
    Bb|-----15-12-15-12----12--------------------------------------------|
    Gb|-----------------14----14-12-14-12-11-12~-------------------------|
    Db|------------------------------------------------------------------|
    Ab|------------------------------------------------------------------|
    Eb|------------------------------------------------------------------|
    | |
    | |
    | |
    Eb|------------------------------------------------------------------|
    Bb|--12--------------------------------------------------------------|
    Gb|-----14-12-14-12-11-12-11----11-----------------------------------|
    Db|--------------------------14----14-12-14~-------------------------|
    Ab|------------------------------------------------------------------|
    Eb|------------------------------------------------------------------|


    LOVE GUN
    Paul Stanley

    [Rhy. Fig 1a]
    [Rhy. Fig 2a w/ Rhy. Fig 2b]

    [Rhy. Fig 3a]
    I really love you baby, I love what you've got
    Let's get together, we can get hot
    [Rhy. Fig 3b]
    No more tomorrow, baby, time is today
    Girl, I can make you feel, okay

    [Rhy. Fig 4]
    No place for hidin' baby
    No place to run
    You pull the trigger of my
    [Rhy. Fig 1a]

    [Rhy. Fig 2a] (2x)
    Love gun, (love gun), love gun
    Love gun, (love gun), love gun

    [Rhy. Fig 3a]
    You can't forget me baby, don't try to lie
    You'll never leave me, mama, so don't try
    [Rhy. Fig 3b]
    I'll be a gambler, baby, lay down the bet
    We get together, mama, you'll sweat

    [Rhy. Fig 4]
    No place for hidin' baby
    No place to run
    You pull the trigger of my
    [Rhy. Fig 1a]

    [Rhy. Fig. 2a] (4x)
    Love gun, (love gun), love gun
    Love gun, (love gun), love gun
    Love gun, love gun

    [Rhy. Fig 1b] (2x)
    [Solo over Rhy. Fig 1b (2x)]

    [Rhy. Fig 2a] (repeat and fade)
    Love gun, (love gun), love gun
    Love gun, (love gun)
    Love gun, (love gun), love gun
    Love gun, (love gun), love gun
    Love gun, (love gun)
    Love gun, (love gun)
    Love gun, (love gun)
    Love gun, (love)



    novidades shows notícias contato artistas a b c d e f g h i j k l m n o p q r s t u v x y w z | 0-9 | temas e jingles




    - Kiss
    .álbum Destroyer
    .música Detroit rock city
    .info Acessos: 3613 Nota dos usuários: 10.00 avalie esta transcrição ->nota 10nota 9nota 8nota 7nota 6nota 5nota 4nota 3nota 2nota 1nota 0

    transcribed by Mark Perillo (mark@kisstabs.com)

    Eb Tuning

    Key:
    / = slide up
    \ = slide down
    b = bend (whole step)
    b^ = bend (1/2 step)
    b^^ = bend (1 1/2 steps)
    pb = pre-bend
    r = release-bend
    r^ = release-bend half-step
    h^ = hammer-on
    p^ = pull-off
    ~ = Vibrato
    * = Natural Harmonic
    #(#) = Trill
    ** = Artificial Harmonic
    x = Muted String (Palm Muting)
    X = Muted String (Fretboard Muting)


    This KISS staple has survived the test of time. Lots of overdubbed guitars, like EVERYTHING on
    Destroyer, and cool harmonies. Go get 4 other guitarists or the harmonizer to play this tune
    properly!!


    Rhythm Fig. 1

    Eb|----------------------------------------------------|
    Bb|----------------------------------------------------|
    Gb|---------------------------------------2------4-----|
    Db|---------------------------------------2------4-----|
    Ab|-4-2-4-2-4-2-4-2---4-4-4-4-4-4-4-------0------2-----|
    Eb|------------------------------------0------0--------|
    <------3x----->


    Eb|----------------------------------------------------|
    Bb|----------------------------------------------------|
    Gb|-6-4-6-4-6-4-6-4---6-6-6-6-6-6-6-------2------4-----|
    Db|---------------------------------------2------4-----|
    Ab|---------------------------------------0------2-----|
    Eb|------------------------------------0------0--------|
    <-----3x------>


    Rhythm Fig. 2

    Eb|----------------------------------------------------|
    Bb|----------------------------------------------------|
    Gb|---------------------------------------2------4-----|
    Db|-6-4-6-4-6-4-6-4---6-6-6-6-6-6-6-------2------4-----|
    Ab|---------------------------------------0------2-----|
    Eb|------------------------------------0------0--------|

    Eb|----------------------------------------------------|
    Bb|----------------------------------------------------|
    Gb|---------------------------------------2------4-----|
    Db|-6-4-6-4-6-4-6-4---6-6-6-6-6-6-6-------2------4-----|
    Ab|---------------------------------------0------2-----|
    Eb|------------------------------------0------0--------|
    <------3x----->


    Rhythm Fig. 3

    Eb|----------------------------------------------------|
    Bb|----------------------------------------------------|
    Gb|-6------------9-------x---4-----11------------------|
    Db|-6------------9-------x---4-----11------------------|
    Ab|-4------------7-------x---2-----9-------------------|
    Eb|--------------0-------------------------------------|
    <----------------2x------------->


    Rhythm Fig. 4

    Eb|----------------------------------------------------|
    Bb|--------------5-------------------------------------|
    Gb|--------------2--------------4----------------------|
    Db|--------------2--------------4----------------------|
    Ab|--------------0--------------2----------------------|
    Eb|----x/19\--0-------------0--------------------------|


    Rhythm Fig. 4a

    Eb|----------------------------------------------------|
    Bb|--------------2--------------4----------------------|
    Gb|--------------2--------------4----------------------|
    Db|--------------2--------------4----------------------|
    Ab|--------------0----------/6-------------------------|
    Eb|-----------0----------------------------------------|

    Rhythm Fig. 5

    Eb|----------------------------------------------------|
    Bb|----------------------------------------------------|
    Gb|6-4-6-4-6-4-6-4--6-4-6-4-6-4-6-4--6-4-6-4-6-4-6-4---|
    Db|6-4-6-4-6-4-6-4--6-4-6-4-6-4-6-4--6-4-6-4-6-4-6-4---|
    Ab|----------------------------------------------------|
    Eb|----------------------------------------------------|

    Eb|----------------------------------------------------|
    Bb|----------------5-----------------------------------|
    Gb|-6--4-6-4-6/----2--------------4--------------------|
    Db|-6--4-6-4-6/----2--------------4--------------------|
    Ab|----------------0--------------2--------------------|
    Eb|-------------0-------------0------------------------|


    Rhythm Fig. 5a

    Eb|----------------------------------------------------|
    Bb|----------------------------------------------------|
    Gb|----------------------------------------------------|
    Db|-----------------------------------------2----------|
    Ab|--4---4-2-----2--------4-------4---2-4------4-------|
    Eb|----------4-----------------------------------------|

    Eb|----------------------------------------------------|
    Bb|----------------2--------------4--------------------|
    Gb|----------------2--------------4--------------------|
    Db|------2---------2--------------4--------------------|
    Ab|--------4-------0----------/6-----------------------|
    Eb|-2--4--------0--------------------------------------|


    Rhythm Fig. 6

    Eb|----------------------------------------------------|
    Bb|----------------------------------------------------|
    Gb|----------------------------------------------------|
    Db|------------------------------------------2---------|
    Ab|--4-------4--2------2-----4-----4--2--4------4------|
    Eb|-----------------4----------------------------------|

    Eb|----------------------------------------------------|
    Bb|----------------------------------------------------|
    Gb|---------------------------------------

    128556
    Veterano
    # jul/06
    · votar


    KISS RULEZ

    pedrovai
    Veterano
    # jul/06
    · votar


    Tópico de louco *_*

    gavião
    Veterano
    # jul/06
    · votar


    eu vo no show do kiss dia 22 q alegria

      Enviar sua resposta para este assunto
              Tablatura   
      Responder tópico na versão original
       

      Tópicos relacionados a love gun