Issu Existe????

    Autor Mensagem
    gjsuzigan
    Veterano
    # fev/04


    issu existe?????È algum tipo de Power chord ou coiza parecida??????me ajudem........os dois:

    e--7----9--
    b--7----9--
    g--5----7--
    d----------
    a----------
    E----------

    pagode nem morto
    Veterano
    # fev/04
    · votar


    Normalmente os acordes assim são chamados de acordes de 5ª. Se fosse...


    e------------------------------------------------------
    B------------------------------------------------------
    G------------------------------------------------------
    D--7---------------------------------------------------
    A--7---------------------------------------------------
    E--5---------------------------------------------------


    ...seria F5, por exemplo.

    crowley666
    Veterano
    # fev/04
    · votar


    isso eh C5bmaj7 (dó com 5 bemol e 7 maior) e a outra eh D

    por chorde nessas cordas seria:


    e---8-----------10-------------------------------------
    B---8-----------10-------------------------------------
    G---5-----------7--------------------------------------
    D------------------------------------------------------
    A------------------------------------------------------
    E------------------------------------------------------


    pagode nem morto
    Veterano
    # fev/04
    · votar


    Esse acorde na verdade naum existe.

    pagode nem morto
    Veterano
    # fev/04
    · votar


    Seria na verdade


    e--7---------------------------------------------------
    B--8---------------------------------------------------
    G--5---------------------------------------------------
    D------------------------------------------------------
    A------------------------------------------------------
    E------------------------------------------------------


    LeandroP
    Moderador
    # fev/04
    · votar


    Isso pode ser várias coisas. A mais comum no primeiro exemplo pode ser um D7(13) que prepara para um G


    e---7----3---------------------------------------------
    B---7----3---------------------------------------------
    G---5----4---------------------------------------------
    D---0----5---------------------------------------------
    A------------------------------------------------------
    E------------------------------------------------------


    O outro tem a mesma função, só que um tom acima.

    Exemplo em uma condução (por movimento dos baixos)

    e------------7---------------7--------------7-----3----
    B--------7----------------7-------------7---------3----
    G-----5---------------5-------------5-------------0----
    D-------------------------------0----------------------
    A----------------7-------------------------------------
    E--7----------------------------------------------3----


    gjsuzigan
    Veterano
    # fev/04
    · votar


    pagode nem morto
    crowley666

    VALEW

    gjsuzigan
    Veterano
    # fev/04
    · votar


    VALEW TDS

      Você não pode enviar mensagens, pois este tópico está fechado.
       

      Tópicos relacionados a Issu Existe????