licks de musica country

    Autor Mensagem
    luislima
    Veterano
    # fev/04


    Vcs poderiam colocar ae em tab alguns licks que vcs gostam ou costumam tocar? Vlw!

    LeandroP
    Moderador
    # fev/04
    · votar


    Eu criei um sobre E, A, B7 usando cordas solta e muito ligado:

    E A7
    |-----0---4-0---0-----0---2-0---0-|-----0-----0-----0----------|
    |-4s5---0-----0---2s4---4-----0---|-1s2---1s2---1s2---0h2p0----|
    |---------------------------------|-------------------------2--|
    |---------------------------------|----------------------------|
    |---------------------------------|----------------------------|
    |---------------------------------|----------------------------|


    B7 E
    |-----2---4-2---------2---4-2-----|-----2-----2-----4-2------||
    |-3s4---4-----4-2-3s4---4-----4-2-|-4s5---4s5---4s5-----5-4-o||
    |---------------------------------|--------------------------||
    |---------------------------------|--------------------------||
    |---------------------------------|-------------------------o||
    |---------------------------------|--------------------------||

    Tripa Seca
    Veterano
    # fev/04
    · votar


    E A7 
    
    |-----0---4-0---0-----0---2-0---0-|-----0-----0-----0----------|
    |-4s5---0-----0---2s4---4-----0---|-1s2---1s2---1s2---0h2p0----|
    |---------------------------------|-------------------------2--|
    |---------------------------------|----------------------------|
    |---------------------------------|----------------------------|
    |---------------------------------|----------------------------|


    B7 E
    |-----2---4-2---------2---4-2-----|-----2-----2-----4-2------||
    |-3s4---4-----4-2-3s4---4-----4-2-|-4s5---4s5---4s5-----5-4-o||
    |---------------------------------|--------------------------||
    |---------------------------------|--------------------------||
    |---------------------------------|-------------------------o||
    |---------------------------------|--------------------------||


    LeandroP
    Moderador
    # fev/04
    · votar


    Tripa Seca

    O meu velho... sempre você pra resolver isto. Eu não tenho as manha mesmo. Valeu!!!

    ;-)

    Só os acordes que são um para cada compasso, mas que ler vai entender.

    Tripa Seca
    Veterano
    # fev/04 · Editado por: Tripa Seca
    · votar


    Panucci
    eh so colocar o [ t ] e a tab aqui no meio[ / t ]

    LeandroP
    Moderador
    # fev/04
    · votar


    Tripa Seca

    É que eu escrevo a partitura na hora no PowerTab (pra ver se está certo) e depois eu exporto a partitura pra ASCII. Não consigo digitar as casas, os efeitos, etc... passaria a tarde inteira.

    LeandroP
    Moderador
    # fev/04
    · votar


    luislima

    Aqui os licks são bem fáceis. Não tem muita técnica, mas acho que dá pra entender como funciona. É sobre os acordes. Vamos dizer que é o chorinho caipira americano ;o)

    LeandroP
    Moderador
    # fev/04 · Editado por: LeandroP
    · votar


    luislima

    http://www.cifraclub.com.br/palcomp3/mp3/goplay.php?id=1225&hifi=1

    Deu pra sacar?

    uchimura125
    Veterano
    # ago/05 · Editado por: uchimura125
    · votar


    .

    uchimura125
    Veterano
    # ago/05
    · votar


     5 5 5 5 


    Blonde Hammet
    Veterano
    # ago/05
    · votar


    uchimura125

    ressucitou com um lick foda hein

      Enviar sua resposta para este assunto
              Tablatura   
      Responder tópico na versão original
       

      Tópicos relacionados a licks de musica country