Arpejos Música Fire - Dr. Sin

    Autor Mensagem
    Alan Matos
    Veterano
    # jan/04


    frlipe, como eu tinha dito, aqui vão os arpejos da Fire

    [T]
    e---6-3-------3-11-6-------6-10-6-------6-13-10---------10--
    B-------4---4--------8---8--------6---6---------11----11----
    G---------3------------8------------7--------------10-------


    [T]
    e--11-8----------8-14-11----------11-15-10----------10------
    B-------10----10---------13----13----------11----11---------
    G----------11---------------14----------------12------------


    [T]
    e--18-15----------15-11----------11-18-15----------15-------
    B--------15----15-------11----11----------16----16----------
    G-----------15-------------12----------------15-------------


    [T]
    e--18-13----------13-13-10----------10-12-9----------9------
    B--------15----15----------11----11---------11----11--------
    G-----------15----------------10---------------12-----------


    [T]
    e--15-12----------12-18-14----------14-17----------14-------
    B--------14----14----------15----15-------15----15----------
    G-----------15----------------14-------------14-------------


    [T]
    e--6-3-------3-11-6-------6-10-6-------6-13-10----------10--
    B------4---4--------8---8--------6---6---------11----11-----
    G--------3------------8------------7--------------10--------


    [T]
    e--11-8----------8-14-11----------11-15-10---------10-------
    B-------10----10---------13----13----------11---11----------
    G----------11---------------14----------------12------------


    [T]
    e--18-15----------15-15-11----------11-18-15----------15----
    B--------15----15----------11----11----------16----16-------
    G-----------15----------------12----------------15----------


    [T]
    e--18-13----------13-13-10----------10-12-9----------9------
    B--------15----15----------11----11---------11----11--------
    G-----------15----------------10---------------12-----------


    [T]
    e--15-12----------12-18-14----------14-17-14----------14----
    B--------14----14----------15----15----------15----15-------
    G-----------15----------------14----------------14----------


    [T]
    e--18-14----------14-17-14----------14-18-14----------14----
    B--------15----15----------15----15----------15----15-------
    G-----------14----------------14----------------14----------


    [T]
    e--17-14----------14--20-(22)-(21)-(22)-/-15----------------
    B--------15----15-------------------------------------------
    G-----------14----------------------------------------------


    Boa sorte frlipe, qualquer dúvida é só perguntar.

    Alan Matos

    Ps1c0
    Veterano
    # jan/04
    · votar


    corrigindo num c esqça de fechar o T([/T]) qdo acabar ehehh

     
    
    e---6-3-------3-11-6-------6-10-6-------6-13-10---------10--
    B-------4---4--------8---8--------6---6---------11----11----
    G---------3------------8------------7--------------10-------


    [T]
    e--11-8----------8-14-11----------11-15-10----------10------
    B-------10----10---------13----13----------11----11---------
    G----------11---------------14----------------12------------


    [T]
    e--18-15----------15-11----------11-18-15----------15-------
    B--------15----15-------11----11----------16----16----------
    G-----------15-------------12----------------15-------------


    [T]
    e--18-13----------13-13-10----------10-12-9----------9------
    B--------15----15----------11----11---------11----11--------
    G-----------15----------------10---------------12-----------


    [T]
    e--15-12----------12-18-14----------14-17----------14-------
    B--------14----14----------15----15-------15----15----------
    G-----------15----------------14-------------14-------------


    [T]
    e--6-3-------3-11-6-------6-10-6-------6-13-10----------10--
    B------4---4--------8---8--------6---6---------11----11-----
    G--------3------------8------------7--------------10--------


    [T]
    e--11-8----------8-14-11----------11-15-10---------10-------
    B-------10----10---------13----13----------11---11----------
    G----------11---------------14----------------12------------


    [T]
    e--18-15----------15-15-11----------11-18-15----------15----
    B--------15----15----------11----11----------16----16-------
    G-----------15----------------12----------------15----------


    [T]
    e--18-13----------13-13-10----------10-12-9----------9------
    B--------15----15----------11----11---------11----11--------
    G-----------15----------------10---------------12-----------


    [T]
    e--15-12----------12-18-14----------14-17-14----------14----
    B--------14----14----------15----15----------15----15-------
    G-----------15----------------14----------------14----------


    [T]
    e--18-14----------14-17-14----------14-18-14----------14----
    B--------15----15----------15----15----------15----15-------
    G-----------14----------------14----------------14----------


    [T]
    e--17-14----------14--20-(22)-(21)-(22)-/-15----------------
    B--------15----15-------------------------------------------
    G-----------14----------------------------------------------



    Alan Matos
    Veterano
    # jan/04
    · votar


    Ps1c0

    Obrigado pela dica, é a primeira vez que eu coloco tab, mas como assim fechar o T? (Desculpe a ignorância hehe)

    Ps1c0
    Veterano
    # jan/04
    · votar


    Alan Matos
    ah qué isso estamos aki pra isso hehehe...

    assim q funciona...
    sempre q vc colocar um (B] vc vai escrever seu texto e qdo num quiser mais q esteja em negrito coloca [/B] no final do texto..
    idem com o [T] com o [i] e com o [u]

    sakou agora?

    Alan Matos
    Veterano
    # jan/04
    · votar


    Ps1c0

    Entendi sim, brigadão.

    Alan Matos

    frlipe
    Veterano
    # jan/04
    · votar


    Alan Matos
    Valeu Alan, agóra vou poder tentar tirar fire, mas só quero ver quando vou conseguir tirar com a rapidez do ardanuy...heheheh, acho que nunca, heheheh.
    Eu também não entendi oq o PS1C0 quiz dizer com fechar o T.
    VAleu

    Alan Matos
    Veterano
    # jan/04
    · votar


    frlipe

    Claro que vai conseguir, o esquema é começar devagar, de preferência com o metrônomo e ir aumentando a velocidade em 10bpm, só aumente qdo vc estiver fazendo com segurança. Não adianta querer fazer rápido de primeira que vc acaba desanimando.

    Boa sorte.

    Alan Matos

    frlipe
    Veterano
    # jan/04
    · votar


    Alan Matos
    Fechar o T, o que é isso?

    Alan Matos
    Veterano
    # jan/04
    · votar


    Pelo q eu entendi, qdo vc terminar de digitar a tab vc coloca [/T], assim ele organiza a mensagem.

    Ps1c0
    Veterano
    # jan/04
    · votar


    clique no botão tab aki da msg q vc vai ter uma idéia...
    eh um (T] antes de começar e um [/T] qdo acabar....

    a tab fica sempre no meio dos dois T's...
    tp o primeiro eh [T] na verdade

    Alan Matos
    Veterano
    # jan/04
    · votar


    Ps1c0

    Tá explicado, eu apaguei o [/T] sem querer.
    Valeu.

    frlipe
    Veterano
    # jan/04
    · votar


    Ps1c0
    Valeu cara !!!!

    Marty Hammet
    Veterano
    # jan/04
    · votar


    Tem a transcrição completa deste solo no site do Edu Ardanuy.
    eduardanuy.com

    frlipe
    Veterano
    # jan/04
    · votar


    ta muito parecido, se duvidar ta igual, muito bom a tirada de arpejos !!!!!

    Alan Matos
    Veterano
    # jan/04
    · votar


    frlipe

    Cara, posso garantir pra vc que tá igual, só precisa pegar o timming dele.

    Alan Matos

    frlipe
    Veterano
    # jan/04
    · votar


    Alan Matos
    hehehe, mas como eu disse a minha rapidez não chega a ser a metade da quinta parte da velocidade do ardanuy, heheheh, um dia eu chego lá...

    Vern
    Veterano
    # jan/04
    · votar


    http://www.angelfire.lycos.com/band2/gogodagua/fire.avi

    Aproveitando o tópico de vocês, alguem tinha me pedido para gravar. Então tá ae.

    Video pequeno 500k desse trecho dá música.

    Acho que não preisa de DIV X. hehehehehe Quero ver ninguem reclamando que não conssegue ver em.

    conte
    Veterano
    # jan/04
    · votar


    essa musica eh foda... curto mto ela
    po cara mto da hr esses arpejos ae

    conte
    Veterano
    # jan/04
    · votar


    Vern
    naum consigu ver
    ehehe
    zuera
    ou c naum tem otra camiseta alem da do metallica naum?? hahaha

    Vern
    Veterano
    # jan/04
    · votar


    conte

    UHAHUAUHAUHUAHUHAUHUHA SABIA, COLOQUEI ELA DE PROPOSITO PARA ALGUEM FALAR. HEHEHE JÁ O 3° VIDEO E NINGUEM FALOU NADA, VOCÊ É O 1° CONTE. YOU ARE WINNER !!!!!!!!!

    FALOW PEXE.

    conte
    Veterano
    # jan/04 · Editado por: conte
    · votar


    I'm the WINNER
    \o/
    e agora q q eu ganhei?...
    q?
    sua guitarra?
    brigado .. naum precisava (ha ha ha)

    Vern
    Veterano
    # jan/04
    · votar


    conte

    Qual se quer ?

    Tem 4 guitarras de verdade e 1 de decoração, acho que a de decoração é a melhor pra você.

    LOL

    Vern
    Veterano
    # jan/04
    · votar


    Pra varias já ultrapassou o limite de banda de tráfico. Esperem.

    Vern
    Veterano
    # jan/04
    · votar


    Já pode puxar.

    conte
    Veterano
    # jan/04
    · votar


    Vern
    a ibanez jem
    tem uma de canhoto ae? c tiver passa pra mimehasue

    Vern
    Veterano
    # jan/04
    · votar


    conte

    Tem nem Tonante de canhoto aqui.

    Dave Murray
    Veterano
    # jan/04
    · votar


    muito loko esse video =]

    Vern
    Veterano
    # jan/04
    · votar


    Dave Murray

    Thnaks pexe.

      Enviar sua resposta para este assunto
              Tablatura   
      Responder tópico na versão original
       

      Tópicos relacionados a Arpejos Música Fire - Dr. Sin