Estudo

Autor Mensagem
frlipe
Veterano
# jan/04


Alguém sabe onde posso conseguir alguns estudos de arpejos sem ser dos exercícios daqui?

Tripa Seca
Veterano
# jan/04
· votar


mysongbook.com

frlipe
Veterano
# jan/04
· votar


Tripa Seca
tu ja tem muita noção de aeprjos com taps

evitaerc
Veterano
# jan/04
· votar


pega o estudo nº 1 do villa lobos pra violão e tenta fazer na palheta, qnd conseguir me avisa !!
uahuahuahuahuauhahua

Tripa Seca
Veterano
# jan/04
· votar


frlipe
um pouquinho.... pergunta mano, se eu souber te ajudar...

frlipe
Veterano
# jan/04
· votar


evitaerc
Tu não tem nenhuma tablatura de arpejos não?

frlipe
Veterano
# jan/04
· votar


Tripa Seca
Cara, como faço para prolongar com taps um arpejo e em seguida continua arpejando?

Tripa Seca
Veterano
# jan/04 · Editado por: Tripa Seca
· votar


uma porrada... de tabs de arpeggio

frlipe
Veterano
# jan/04
· votar


evitaerc
Tenho, mas gostaria de aprender mais, pois arpejos é uma das técnicas que acho mais legais

Tripa Seca
Veterano
# jan/04
· votar


puts eu editei errado...

eu kis dizer que eu tenho uma porrada de tab de arpejos...

acho que eu devo parar de beber vodka no trampo...

frlipe
Veterano
# jan/04
· votar


Tripa Seca
cara tu pode mandar para o meu e-mail? fflipe@bol.com.br

Tripa Seca
Veterano
# jan/04
· votar


não entendi o que vc quis dizer com prolongar com taps..

mas tapping eh uma maneira legal de faze-los( arpejos)

Tripa Seca
Veterano
# jan/04
· votar


frlipe

vc tem guitar pro?

frlipe
Veterano
# jan/04
· votar


Tripa Seca
peguei hoje o guitar pro

Tripa Seca
Veterano
# jan/04
· votar


beleza... to mandando....

Freiheit
Veterano
# jan/04
· votar


http://www.cifraclub.com.br/forum/index.php?forum=3&topic=24127

evitaerc
Veterano
# jan/04
· votar


frlipe

"evitaerc
Tenho, mas gostaria de aprender mais, pois arpejos é uma das técnicas que acho mais legais"

Cara num entendi, vc tem o q??

evitaerc
Veterano
# jan/04
· votar


Cara tablatura de arpejos num tenhu não, mas se quiser tenhu a partitura do estudo nº do villa, que é todo arpejado, são arpejos muito rapidos msm, são pra ser executados com dedilhado, mas se vc quiser tentar na palheta pra treinar achu q da se vc fizer mais lento do que deve ser

yvo
Veterano
# jan/04
· votar


Tripa Seca

pode mandar pra mim tambem alguns com arpejo e sweep??

yvo
Veterano
# jan/04
· votar


ah me esqueci
frlipe

se vc ta querendo treinar sweep tem um manero:


e-------------10-14-10-----------------10-14-10--------
B-----------12--------12-------------12--------12------
G---------11------------11---------11------------11----
D-12-11-12-----------------12-11-12--------------------
A------------------------------------------------------
E------------------------------------------------------



e-------------10-15-10----------------10-15-10--------
B-----------12--------12------------12--------12------
G---------11------------11--------11------------11----
D-12-11-12----------------12-11-12--------------------
A-----------------------------------------------------
E-----------------------------------------------------


Freiheit
Veterano
# jan/04
· votar


http://www.cifraclub.com.br/forum/index.php?forum=3&topic=24127
olha esse topico... dai c nao vai precisar mais ir atras de exercicios pra sweep...

frlipe
Veterano
# jan/04
· votar


Galera, valeu...

ontem eu tive qu esair e não deu nem tempo de agradecer, principalmente Tripa Seca,
Freiheit,
yvo,
evitaerc,

Valeu mesmo galera, estou cada vez mais evoluindo por aqui, vocês são gente boa!!!!

frlipe
Veterano
# jan/04
· votar


se vc ta querendo treinar sweep tem um manero:


e-------------10-14-10-----------------10-14-10--------
B-----------12--------12-------------12--------12------
G---------11------------11---------11------------11----
D-12-11-12-----------------12-11-12--------------------
A------------------------------------------------------
E------------------------------------------------------




e-------------10-15-10----------------10-15-10--------
B-----------12--------12------------12--------12------
G---------11------------11--------11------------11----
D-12-11-12----------------12-11-12--------------------
A-----------------------------------------------------
E-----------------------------------------------------

evitaerc
Veterano
# jan/04
· votar


frlipe

O estudo numero 1 do villa segue esta construção, ele serve mais para treinar arpejos para a mão direita, isso é pra ser executado extremamente rápido e com uma cadencia continua, manda tipo a uns 140-160 bpm, mas colocando 4 notas em cada batida saco?? Começa mais lento e vai acelerando. O estudo é baseado neste modelo de arpejos e o que varia são os acordes montados em cada um, mas da pra extrair esse exercicio do estudo

E---------------x---x--------------
B-----------x-----x-----x----------
G-------x-----x-------x-----x------
D---x-----x---------------x----x---
A-----x----------------------x-----
E-x------------------------------x-

frlipe
Veterano
# jan/04
· votar


valeu, quem souber mais estudos pode mandar por favor

rfag
Veterano
# jan/04
· votar


frlipe


T
e----------------12--15--17p15--12-------------------
B-------------13-------------------13----------------
G----------14-------------------------14-------------
D-------14-------------------------------14----------
A-12-15-------------------------------------15--12---


exemplo bem simples em Am

richard1987
Veterano
# jan/04
· votar


Tripa Seca
acho que eu devo parar de beber vodka no trampo...

vodka mt bom

frlipe
Veterano
# jan/04
· votar


richard1987
heheheh, mas manda algum estudo

Alan Matos
Veterano
# jan/04
· votar


Esse fica bem legal. É na linha do Ardanuy.

                           T

e----------------12-15-17-20-22-20-17-15-12----------------
B-------------13----------------------------13-------------
G----------14----------------------------------14----------
--------14----------------------------------------14-------
A-12-15----------------------------------------------15-12-
E----------------------------------------------------------


Alan Matos

frlipe
Veterano
# jan/04
· votar


Alan Matos
cara tu ja conseguiu tirar a música fire do edu ardanuy? Aqueles arpejos...?
Searching for light?

Enviar sua resposta para este assunto
        Tablatura   
Responder tópico na versão original
 

Tópicos relacionados a Estudo