alguem pode me passar?

    Autor Mensagem
    vitor
    Veterano
    # jan/04


    os desenhos dos modos gregos no braço da guitarra

    vitor
    Veterano
    # jan/04
    · votar


    o da penta eu sei agora os outros nao faço a minima ideia

    drdahmer
    Veterano
    # jan/04
    · votar


    vai no tópico relação dos exercícios postados no fórum ali tem... é o 2o tópico.. tá com uma !

    drdahmer
    Veterano
    # jan/04
    · votar


    foi mal.. hehe é o 1o tópico..
    mas aqui vão os desenhos...


    a)Modos Gregos- G

    Jônio
    -------------------------------5-7-8-
    -------------------------5-7-8-------
    -------------------4-5-7-------------
    -------------4-5-7-------------------
    -------3-5-7-------------------------
    -3-5-7-------------------------------

    Dório
    --------------------------------7-8-10-
    -------------------------7-8-10--------
    -------------------5-7-9---------------
    -------------5-7-9---------------------
    -------5-7-9---------------------------
    -5-7-8---------------------------------

    Frígio
    -------------------------------------8-10-12-
    -----------------------------8-10-12---------
    ----------------------7-9-11-----------------
    ---------------7-9-10------------------------
    --------7-9-10-------------------------------
    -7-8-10--------------------------------------

    Lídio
    ------------------------------------------10-12-14-
    ---------------------------------10-12-13----------
    -------------------------9-11-12-------------------
    -----------------9-10-12---------------------------
    ---------9-10-12-----------------------------------
    -8-10-12-------------------------------------------

    Mixolídio
    ----------------------------------------------12-14-15-
    -------------------------------------12-13-15----------
    ----------------------------11-12-14-------------------
    -------------------10-12-14----------------------------
    ----------10-12-14-------------------------------------
    -10-12-14----------------------------------------------

    Eólio
    ----------------------------------------------14-15-17-
    -------------------------------------13-15-17----------
    ----------------------------12-14-16-------------------
    -------------------12-14-16----------------------------
    ----------12-14-15-------------------------------------
    -12-14-15----------------------------------------------

    Lócrio
    ----------------------------------------------15-17-19-
    -------------------------------------15-17-19----------
    ----------------------------14-16-17-------------------
    -------------------14-16-17----------------------------
    ----------14-15-17-------------------------------------
    -14-15-17----------------------------------------------



    Errol
    Veterano
    # jan/04
    · votar


    Modos Gregos
    

    Lídio (IV), Mixolídio (V):
    |--------------------------------3-5-|
    |--------------------------3-5-6-----|
    |--------------------2-4-5-----------|
    |-------------2-3--5-----------------|
    |-------2-3-5------------------------|
    |-1-3-5------------------------------|

    |--------------------------------------------------SOL-LA-|
    |-----------------------------------------RE-MI-FA--------|
    |--------------------------------LA-SI-DO-----------------|
    |---------------------MI-FA--SOL--------------------------|
    |-----------SI-DOL-RE-------------------------------------|
    |-FA-SOL LA-----------------------------------------------|


    Eólio (VI):
    |-----------------------------5-7-8-|
    |-----------------------5-6-8-------|
    |-----------------4-5-7-------------|
    |-------------5-7-------------------|
    |-------5-7-8-----------------------|
    |-5-7-8-----------------------------|

    |---------------------------------------------LA-SI-DO-|
    |-----------------------------------MI-FA-SOL----------|
    |--------------------------SI-DO-RE--------------------|
    |-------------------SOL-LA-----------------------------|
    |----------RE-MI-FA------------------------------------|
    |-LA-SI-DO---------------------------------------------|


    Lócrio (VII), Iônico (I):
    |----------------------------------7-8-10-|
    |-----------------------------8-10--------|
    |----------------------7-9-10-------------|
    |---------------7-9-10--------------------|
    |--------7-8-10---------------------------|
    |-7-8-10----------------------------------|

    |---------------------------------------------SI-DO-RE-|
    |--------------------------------------SOL-LA----------|
    |-----------------------------RE-MI-FA-----------------|
    |--------------------LA-SI-DO--------------------------|
    |----------MI-FA-SOL-----------------------------------|
    |-SI-DO-RE---------------------------------------------|


    Dórico:
    |-----------------------------------------10-12-13-|
    |--------------------------------10-12-13----------|
    |------------------------9-10-12-------------------|
    |----------------9-10-12---------------------------|
    |----------10-12-----------------------------------|
    |-10-12-13-----------------------------------------|

    |---------------------------------------------RE-MI-FA-|
    |------------------------------------LA-SI-DO----------|
    |--------------------------MI-FA-SOL-------------------|
    |-----------------SI-DO-RE-----------------------------|
    |----------SOL-LA--------------------------------------|
    |-RE-MI-FA---------------------------------------------|


    Frígio (III):
    |-------------------------------------------12-13-15-|
    |----------------------------------12-13-15----------|
    |----------------------------12-14-------------------|
    |-------------------12-14-15-------------------------|
    |----------12-14-15----------------------------------|
    |-12-13-15-------------------------------------------|

    |---------------------------------------------MI-FAL-SOL-|
    |------------------------------------SI-DO-RE------------|
    |-----------------------------SOL-LA---------------------|
    |--------------------RE-MI-FA----------------------------|
    |-----------LA-SI-DO-------------------------------------|
    |-MI-FA-SOL----------------------------------------------|





    Cada modo, tem dois desenhos. O primeiro, mostra o modo, o segundo, as notas q você tokah.

    Os modos, Lidio/mixolidio, usam apenas um desenho, pq o lidio, representa o 4 grau (fá), intaum ele parte de fá, o mixolídio, representa o 5 grau (sol), intaum ele parte de sol (3ª casa da corda seis). O mesmo acontece com os modos Lócrio e Iônicoque representam respectivamente os 7 e 1 graus (si e dó)

    vitor
    Veterano
    # jan/04
    · votar


    drdahmer
    Errol
    valeu!!!!

    vitor
    Veterano
    # jan/04
    · votar


    que tom que ta tudo isso?

    glaucius
    Veterano
    # jan/04
    · votar


    michaellc
    isso se usa nos solos,e é basicamente vc tocar por exemplo uma escala de F sobre o tom de C,isso seria o modo Lídio 4 grau,ex:C D E F G A B C
    1 2 3 4 5 6 7 8

      Enviar sua resposta para este assunto
              Tablatura   
      Responder tópico na versão original
       

      Tópicos relacionados a alguem pode me passar?