November Rain

    Autor Mensagem
    Deni
    # ago/02


    pessoas...
    por favor alguém sabe a parte da guitarra do slash, na música november rain, do guns 'n roses?
    por favor se tiverem mandem para: dmcc@brturbo.com.br , eu preciso muito dessa música.
    pode ateh ser soh o finalzinho, mas se tiver todas as partes melhor...
    bjus

    ebmp
    # ago/02


    eu tenho
    pega o guitar pro e vai em www.mysongbook.com e lá tem... Tem ao vivo e estuidio

    Slash Maniaco
    # ago/02


    O solo final vc encontrara na revista guitar class n°9! q é só sobre o slash!
    Quem gosta vale a pena comprar, tem outros solos também! se nao emcontrar nas bancas! www.revitaguitarclass.com.br

    Slash maniaco
    # ago/02


    November rain
    
    Guns N' Roses
    Use your illusion 1
    Slash Maniaco

    Fmaj7 Dm9 C Csus4 C
    When I look in to your eyes i can see a love restrained
    Fmaj7 Dm9 C Csus4 C
    but darlin' when i hold you, don't you know i feel the same?
    Dm G C
    nothing lasts for ever and we both know hearts can change
    Dm G C
    and it's hard to hold a candle in the cold november rain
    Fmaj7 Dm
    we've been through this such a long long time just tryin' to kill the pain
    C Csus4 C Fmaj7 Dm
    oh_ yeah___ but lovers always come and lovers always go and no one's
    C Csus4 C
    really sure who's letting go today__ walking a way__
    Fmaj7 Dm
    if we could take the time to lay it on the line, i could rest my head
    C Csus4 C Dm
    just knowing that you were mine all mine
    G C
    so if you want to love me, then darlin' don't refrain
    Dm G C
    or i'll just end up walkin' in the cold november rain
    F G
    do you need sometime on your own
    F G
    do you need sometime all alone
    F G
    ooh, everybody needs sometime on their own
    F G
    ooh, don't you know you need some time all alone
    E5 F5 C5 E5 F5
    i know it's hard to keep an o-pen heart when even friends seem

    D5 E5 F5 C5
    |-----------------------------------------------------------------------|
    |--------------3-5-5br-3------------------------------------------------|
    |-------------------------4br~~~----------------------------------------|
    |-----------------------------------------------------------------------|
    |-----------------------------------------------------------------------|
    |-----------------------------------------------------------------------|
    out to harm you but if you could heal a broken heart

    |----------------------------|
    |----------------------------|
    |-/5~~~~-------4br~~~~--2--0-|
    |----------------------------|
    |----------------------------|
    |----------------------------|

    E5 F5 G5
    wouldn't time be out to charm you woh_____________

    Guitar solo 1:
    |-----------8-----------------------------8------------8~~~~~~-------|
    |-b8---r8b----8---r(8)p6--8brbr----r8b------r8--5br~~----------5brbr-|
    |--------------------------------------------------------------------|
    |--------------------------------------------------------------------|
    |--------------------------------------------------------------------|
    |--------------------------------------------------------------------|

    |------------------------------------------------------------------|
    |-5~~----------8------------------------8--------------------------|
    |-----7p5--7/9---9\7--5---b8-------r8b----8--r(8)p6--8brb-----r8b--|
    |------------------------------------------------------------------|
    |------------------------------------------------------------------|
    |------------------------------------------------------------------|

    |-8-8br---10b(hold)-8h10p8----8-------13p12-----13p12----13b---13~~~~--|
    |--------------------------10---11b----------13-------13---------------|
    |----------------------------------------------------------------------|
    |----------------------------------------------------------------------|
    |----------------------------------------------------------------------|
    |----------------------------------------------------------------------|

    |----12--13-12h13p12---------12-13br-13-12-12b-12~~~-20--(20)~~~-|
    |-15-----------------15~~-15-------------------------------------|
    |----------------------------------------------------------------|
    |----------------------------------------------------------------|
    |----------------------------------------------------------------|
    |----------------------------------------------------------------|

    |-19-19--19\17--17\15--15\13--13--13\12--12--12h13p12-----12h13~~~|
    |------------------------------------------------------15---------|
    |-----------------------------------------------------------------|
    |-----------------------------------------------------------------|
    |-----------------------------------------------------------------|
    |-----------------------------------------------------------------|

    |-12-13-12h13p12--------12---------------------------------------------|
    |----------------15p13-----13---15h17p15-15-12h13-12h13p12--------12---|
    |-----------------------------------------------------------14p12------|
    |----------------------------------------------------------------------|
    |----------------------------------------------------------------------|
    |----------------------------------------------------------------------|

    |-------------------------------------------------------------|
    |----10-----------------------------13~~~~--------------13~~~-|
    |-12----10--12--10--9~~~~--12p10\9-----------10h12p10\9-------|
    |-------------------------------------------------------------|
    |-------------------------------------------------------------|
    |-------------------------------------------------------------|

    |--------------------------15--------------------|
    |-------------15b-------------r15---13-----(13)b-|
    |-10h12p10\9-------------------------------------|
    |------------------------------------------------|
    |------------------------------------------------|
    |------------------------------------------------| (end of solo 1)

    F G F
    |----------------------------------------------------------|
    |-13-----------(13)b-------------------6-5-----------------|
    |----------------------------5h7p5----------5---------5h7--|
    |-----------------------------------7----------7-----------|
    |----------------------------------------------------------|
    |----------------------------------------------------------|
    need some time on my own sometimes i need sometime all alone

    G F G
    |------------------------------------------------------------------------|
    |------6b-------6p5----6---5---------------------------------------------|
    |----------------------------5-------------5h7-------------5h7p5---------|
    |-7-5---------------------------7----------------------7----------7------|
    |------------------------------------------------------------------------|
    |------------------------------------------------------------------------|
    ooh, everybody needs sometime on their own ooh, don't you know you

    F G
    |-----------------------------------------------------------|
    |-6--5------------------------------------------------------|
    |------5---------------------7--9--10--12--14--16--17--19---|
    |--------7--------------------------------------------------|
    |-----------------------------------------------------------|
    |-----------------------------------------------------------|
    need sometime all alone

    Guitar solo 2:
    |--------------------------------------20---------------20---------19b-|
    |-----------------------18~~~~~~-20b------r20-----(20)b----18-17~------|
    |-7-9-10-12-14-16-17-19------------------------------------------------|
    |----------------------------------------------------------------------|
    |----------------------------------------------------------------------|
    |----------------------------------------------------------------------|

    w/Fill 2
    |----------------------17--------------------------------------------------|
    |-17b-rb-r----17-18-20----18--20-17-18-20--17br-17-------------------------|
    |----------19--------------------------------------19brp17--19p17-----17---|
    |------------------------------------------------------------------19------|
    |--------------------------------------------------------------------------|
    |--------------------------------------------------------------------------|

    |-----------------------------------------------------------------------|
    |-20---------------20----------------20b--20--18h20p18p17--18-17h18p17--|
    |----17-17------17----17-17-17----17------------------------------------|
    |-----------19-----------------19---------------------------------------|
    |-----------------------------------------------------------------------|
    |-----------------------------------------------------------------------|

    |------------------------------------|
    |-----17------20---------------------|
    |-19-----19b------19---17~~~~--------|
    |------------------------------------|
    |------------------------------------|
    |------------------------------------| (end of solo 2)

    Fmaj7 Dm C Csus4 C
    and when your fears subside and shadows still remain oh_ yeah_
    Fmaj7 Dm
    i know that you can love me when there's no one left to blame
    C Csus4 C Dm
    ah______________________________________
    G C
    so nevermind the darkness we still can find a way
    Dm G C5 G/B
    nothing lasts forever even cold november rain

    G G G G G G

    A5 G5 F5 G5 C5 G/B A5 G F5 G5 C5


    C5
    you're not the only one you're not the only one
    G5 F5 Eb5
    don't ya think that you need somebody don't ya think that you need someone
    Ab5 Bb5
    everybody needs somebody

    (play the above part 'til the end of song)


    /-----------------------------------------------------------\
    | |
    | Fill 2. |
    | E|-12-13----12----------------------------------------| |
    | B|-------15----13-15-12-13-----12---------------------| |
    | G|--------------------------14----12-14-10-12-9-10----| |
    | D|--------------------------------------------------9-| |
    | A|----------------------------------------------------| |
    | E|----------------------------------------------------| |
    | |
    \-----------------------------------------------------------/


    Slash maniaco
    # ago/02


    Valeu é um praser ajudar alguem q tenha um gosto tão bom!

    Slash maniaco
    # ago/02


     Outro:
    
    |--20--------19~-----20b-|
    |------------------------|
    |------------------------|
    |------------------------|
    |------------------------|
    |------------------------|

    |------20--19--20--15------15--|--16~---15h16p15----15~--------15-|
    |----------------------16------|-----------------18---------18----|
    |------------------------------|----------------------------------|
    |------------------------------|----------------------------------|
    |------------------------------|----------------------------------|
    |------------------------------|----------------------------------|

    |--16-15-16p15----------------15----------------------------|
    |--------------18-16----16-18----18-16-18-15-16-18-16-15-16-|
    |--------------------17-------------------------------------|
    |-----------------------------------------------------------|
    |-----------------------------------------------------------|
    |-----------------------------------------------------------|

    |----------------------------------------|--20--------19~-----20b-|
    |--15r-15r----15-16-18-15-16-18-15-------|------------------------|
    |----------17----------------------17~---|------------------------|
    |----------------------------------------|------------------------|
    |----------------------------------------|------------------------|
    |----------------------------------------|------------------------|

    |------20--19--20--15------15--|--16~---15h16p15----15~--------------|
    |----------------------16------|-----------------18---------15-16-18-|
    |------------------------------|-------------------------------------|
    |------------------------------|-------------------------------------|
    |------------------------------|-------------------------------------|
    |------------------------------|-------------------------------------|

    |--15-16-15h16p15-------15-------15-------------------------15-16p15-------15-------|
    |-----------------18-16----16-18----18p16-18-16----15-16-18----------18p16----16h18-|
    |-----------------------------------------------17----------------------------------|
    |-----------------------------------------------------------------------------------|
    |-----------------------------------------------------------------------------------|
    |-----------------------------------------------------------------------------------|

    |--15----------------------------------------------------------------|
    |-----18-16----15-16-18-15----16-15----------------------------------|
    |-----------17-------------17-------17-15-17-15p13h15p13h15p13-------|
    |--------------------------------------------------------------12~---|
    |--------------------------------------------------------------------|
    |--------------------------------------------------------------------|

    |--20--------19~-----20b-|------20--19----------------|----------------------------|
    |------------------------|--------------20b-----15----|--15b-----15----18b-----16--|
    |------------------------|-------------------------17-|-------------17-------------|
    |------------------------|----------------------------|----------------------------|
    |------------------------|----------------------------|----------------------------|
    |------------------------|----------------------------|----------------------------|

    |--------20~--------20-15-20-19-20-|
    |-----16---------------------------|
    |--17------------------------------|
    |----------------------------------|
    |----------------------------------|
    |----------------------------------|

    |--15-18-16-18-15-16p15----15-------15----15----15----|--20--------19~-----20b-|
    |-----------------------18----16-18----16----16----16-|------------------------|
    |-----------------------------------------------------|------------------------|
    |-----------------------------------------------------|------------------------|
    |-----------------------------------------------------|------------------------|
    |-----------------------------------------------------|------------------------|

    |------20--19--20--15------15--|--16~-----15h16p15----15~--------15-|
    |----------------------16------|-------------------18---------18----|
    |------------------------------|------------------------------------|
    |------------------------------|------------------------------------|
    |------------------------------|------------------------------------|
    |------------------------------|------------------------------------|

    |--18r-18b-------15----15--------|--------------------------------------------|
    |-------------------16----16-----|--------------------------------------------|
    |----------------------------17~-|----15-17-17-15-----------------------------|
    |--------------------------------|----------------17-16-15-15-15-13-15-13-----|
    |--------------------------------|----------------------------------------15--|
    |--------------------------------|--------------------------------------------|

    |--20--------19~-----20b-|------20--19--20--15------15--|
    |------------------------|----------------------16------|
    |------------------------|------------------------------|
    |------------------------|------------------------------|
    |------------------------|------------------------------|
    |------------------------|------------------------------|

    |--16~-----15h16p15----15~--------15-|
    |-------------------18---------18----|
    |------------------------------------|
    |------------------------------------|
    |------------------------------------|
    |------------------------------------|

    |--15h16h18-15h16h18-15h16h18p16p15----16----15h16p15----15-----|
    |-----------------------------------18----18----------18----18r-|
    |---------------------------------------------------------------|
    |---------------------------------------------------------------|
    |---------------------------------------------------------------|
    |---------------------------------------------------------------|

    |---------------------15-15r---------|--20--------19~-----20b-|
    |--16----18--16-18-16----------15r---|------------------------|
    |-----17-----------------------------|------------------------|
    |------------------------------------|------------------------|
    |------------------------------------|------------------------|
    |------------------------------------|------------------------|

    |------20--19--20--15------15--|--16~-----15-------------------|
    |----------------------16------|-------------18----18r------16-|
    |------------------------------|----------------20-------------|
    |------------------------------|-------------------------------|
    |------------------------------|-------------------------------|
    |------------------------------|-------------------------------|

    |----------------------|--------------------|
    |--15r-------15~-------|----------15b-------|
    |----------------------|--------------------|
    |----------------------|--------------------|
    |----------------------|--------------------|
    |----------------------|--------------------|
    Slash mãniaco! é um praser ajudar um GnR Maniaco!


    leticia123
    Veterano
    # ago/10
    · votar


    Gente alguem sabe qual a cor, a marca e etc... da guitarra que o slash usa nesse clipe?

    GOREFESTA
    Veterano
    # ago/10
    · votar


    Gente alguem sabe qual a cor, a marca e etc... da guitarra que o slash usa nesse clipe?

    Tonante rosa shock!

    Volte para o inferno topico ancestral sobre Islaxi!!!!!!!!!!!

    leticia123

    Falando sério, custa pesquisar no youtube?

    GarrafaSK8
    Veterano
    # ago/10 · Editado por: GarrafaSK8
    · votar


    Gibson les paul standard Tobacco sunburst

    carnisa1
    Veterano
    # ago/10
    · votar


    Pra que existe o google, pra enfeite? E o CifraClub? Também?

    J. S. Coltrane
    Veterano
    # ago/10
    · votar


    Podiam trocar o nome do FCC para Fórum do Slash

    Floyd N Roses
    Veterano
    # ago/10
    · votar


    leticia123
    Olhaa...nem lembro hein...mas...se tratando do SLASH...

    ...se não for uma Gibson Les Paul Sunburst (Laranja e Preto)...deve sê uma Gibson Les Paul Gold Top...e se não for uma B.C. Rich Mockingbird (VERMELHA)...COM CERTEZA é uma Gibson SG Double Neck (PRETA)!!! o.ô ...


    Ma VO FALÁ viu...Santa Preguiça...BATMAN!!! 5 segundos no Google tenho CERTEZA que acho isso!!! ¬¬"" ...Mas...como PRA MIM não interessa...[até pq SE EU TIVESSE DINHERO pra comprá...eu escolheria uma guitarra pelo MEU gosto...não pelo do SLASH e nem de NENHUM OTRO]...vo dexá o google livre de perguntas idiotas um poco [já devem ser TANTAAS...]!!! -.-


    ...[P.S.: E só do um desconto...pq é minina hein!!!]




    o/

    Floyd N Roses
    Veterano
    # ago/10
    · votar


    J. S. Coltrane
    Olhaa caraa...se o Slash fizesse um site falando que guitarra...amp...efeito...configurações...roupa...CUECA...ou qual vodka ele tomo e QUE MARCA DE CIGARRO ELE USÔ...em cada show...


    ...COM CERTEZA ele TRIPLICAVA a fortuna dele!!! =B


    Qualqué dia...em um dos nossos papos diarios do essa idéia pra ele!!! ;D




    o/

      Enviar sua resposta para este assunto
              Tablatura   
      Responder tópico na versão original
       

      Tópicos relacionados a November Rain