\rake/ e Harm., o q sao isso?

    Autor Mensagem
    Grodash
    Veterano
    # jan/04


    \rake/ e Harm., o q sao isso?

    rafarhp
    Veterano
    # jan/04
    · votar


    quem sabe

    maggie
    Veterana
    # jan/04
    · votar


    Onde tu leu isso?

    Grodash
    Veterano
    # jan/04
    · votar


    num cifra, ta aqui oh

    Fill A
    PM----------] PM-------]
    Gtr.2 Harm. Harm.
    ------------------------------------------------
    ------------------------------------------------
    ------------------------------------------------
    -------------------6----------------6-----------
    --5--5--6--6-----x-----6--6--6----x-------------
    --3--3--4--4---x-------4--4--4------------------
    \rake/ \rake/

    Grodash
    Veterano
    # jan/04
    · votar


    la vem essa parada toda errada, entrem nesse link aqui:
    http://www.cifraclub.com.br/cifras/cifras.php?idcifra=1277

    vai abaixando q eh logo depois da intro

    rafarhp
    Veterano
    # jan/04
    · votar


    Grodash

    aaahnnnnnn bom.... pensei q isso fosse algum equipamento novo!!! rs....

    Grodash
    Veterano
    # jan/04
    · votar


    rafarhp
    haha, mas num sabe o q eh nao?

    Grodash
    Veterano
    # jan/04
    · votar


    ninguem sabe o q eh?

    rafarhp
    Veterano
    # jan/04
    · votar


    Grodash

    tenho nem ideia...

    Unknown
    Veterano
    # jan/04
    · votar


    Rake é uma espécie de Sweep, só que com as cordas abafadas pela mão direita (caso vc seja destro)

    GuitarHouse
    Veterano
    # jan/04
    · votar


    Rake é uma espécie de Sweep, só que com as cordas abafadas pela mão direita (caso vc seja destro)

    mais facil dizer q as cordas sao abafados por palm-mute.
    :)

    Grodash
    Veterano
    # jan/04
    · votar


    Unknown
    e esse Harm?

    GuitarHouse
    Veterano
    # jan/04
    · votar


    provavelmente abreviacao de Harmonico, e provavelmente artificial tb.

    Dave Murray
    Veterano
    # jan/04
    · votar


    Rake nao eh o Palm Muted nao...
    nessa tab o Palm Muted tah especificado em cima..
    Rake sao os "x" na tab... pra executa-lo vc tem apenas encostar os dedos da mao esquerda nas cordas, sem preciona-las...

    GuitarHouse
    Veterano
    # jan/04
    · votar


    Dave Murray
    rake q eu saiba eh palm-muted...tipo, ta implicito

    e esse palm-muted ai eh pro power chord

    eh o q eu acho.

    Unknown
    Veterano
    # jan/04
    · votar


    Dave Murray

    Não não... É Palm-muted... Tem uma música do Rush que tem rake e a tab diz assim:


    rake
    e------10------------------------|
    B----10--------------------------|
    G--11----------------------------|


    Dave Murray
    Veterano
    # jan/04
    · votar


    GuitarHouse
    o post dele saiu torto... veja a tab...
    Rake sao as notas mortas ( "x" )

    Dave Murray
    Veterano
    # jan/04
    · votar


    Unknown
    pq intao na tab tem "PM-------" sobre os power chords e "rake" nos "x"... ? jah teve um topic assim aqiu no forum e tenho certeza q eh X

    Dave Murray
    Veterano
    # jan/04
    · votar


    no caso dessa musica do rush, vc faz o rake sobre esses trastes indicados...11 e 10... eh como se fosse um harmonico natural... eh soh encostar os dedos nas cordas...

    Unknown
    Veterano
    # jan/04
    · votar


    Olha que eu acho que não é... Tenho quase certeza que é sweep com palm-mute...

    Dave Murray
    Veterano
    # jan/04
    · votar


    prcurei na net alguma coisa sobre... achei por inquanto essa tab aqui.. veja as legendas:

    http://br.share.geocities.com/isssfranchows/Quest.txt

    GuitarHouse
    Veterano
    # jan/04
    · votar


    esse cara erro, pq isso ai num eh rake nunca..


    E-|-----------------------------------------------------|------------- --------|
    B-|-----------------------------------------------------|------------- --------|
    G-|-----------------------------------------------------|------------- --------|
    D-|-9xxxx-11xxx-12xxx-14xx16--14xx12-11-12--------------|------------- --------|
    A-|-7xxxx-9xxxx-10xxx-12xx14--12xx10-9--10--10xxxx--12x-|------------- --------|
    E-|-----------------------------------------8xxxxx--10x-|------------- --------|


    GuitarHouse
    Veterano
    # jan/04
    · votar


    http://www.guitartricks.com/2000/trick.php?trick_id=465

    ai diz q eh soh o ato de abafar, mas nao diz como

    :)

      Enviar sua resposta para este assunto
              Tablatura   
      Responder tópico na versão original
       

      Tópicos relacionados a \rake/ e Harm., o q sao isso?