Podem me passar uns arpejos por favor.

    Autor Mensagem
    DIMEBAG DARREL
    Veterano
    # jan/04


    Ei pessoal,estou "sem" guitarra no momento,e tenho q me contentar com meu violão.E como a única coisa q gosto de solar no violão são arpejos,alguém pode me passar alguns arpejos,ou links e etc.Más vejam bem,eu quero arpejos q envolvam as 6 cordas.Pois eu conheço muitas formas de arpejos,só q no máximo eles envolvem 5 cordas,e eu quero usar as 6 em um só arpejo.
    Bom,quem puder me ajudar,fico muito grato.

    Marcio Filho
    Veterano
    # jan/04
    · votar


    Pô treiná arpejo no violão é totalmente diferente do que na guitarra, no violão vc pode treinar errado e não reparar o som embolar, o q vc só repararia se usasse uma distorção...

    DIMEBAG DARREL
    Veterano
    # jan/04
    · votar


    Marcio Filho
    Más é q acabei quebrando uma corda da guitarra,por isso escrevi q estou sem guitarra com a palavra sem entre """.
    E como não tenho pique para praticar com a guitarra nessas condições terei q usar o violão mesmo.

    conte
    Veterano
    # jan/04
    · votar


    Arpejo maior

    e-------------5-9-5---------------------------------------
    B-----------5-------5-----------------------------------
    G---------6-----------6----------------------------------
    D-------7---------------7--------------------------------
    A-----7-------------------7------------------------------
    E-5-9-----------------------9-5----------------------------


    e arpejo menor

    e-------------5-8-5---------------------------------------
    B-----------5-------5------------------------------------
    G---------5-----------5----------------------------------
    D-------7---------------7--------------------------------
    A-----7-------------------7------------------------------
    E-5-8-----------------------5-8----------------------------

    da pra treiná tanto pra sweep qnto pra palhetada alternada

    FeeL Vai
    Veterano
    # jan/04
    · votar


    akeles arpejos do filme do Steve Vai, crosroads é da hora pra treina

    ( Am )

    e-----------------8-10-8--------------
    B---------------10-------10-----------
    G-----------5-9-------------9-5-------
    D---------7---------------------7-----
    A-------7-------------------------5---
    E-5---8-----------------------------5-

    E7

    e-------------------7-----------------
    B-----------------9---9---------------
    G-------------7-9-------9--7----------
    D--------6-9-----------------9--6-----
    A---5--7--------------------------7-5-
    E-7-----------------------------------


    A7

    e------------------5-----------------
    B-------------5--8---8--5------------
    G-----------6-------------6----------
    D-------5-7-----------------7--5-----
    A-----7--------------------------7---
    E-5-9------------------------------9-

    (Dm)
    
    e----------------10-13-10----------------
    B--------------10---------10-------------
    G---------7-10---------------10-7--------
    D-------7-------------------------7------
    A---5-8----------------------------------
    E-5---------------------------------10-8-

    (G# dim7)
    
    e----------------------------------------
    B-------------------9-12-9---------------
    G----------------10--------10-7----------
    D-----------9-12----------------9-6------
    A------8-11-------------------------8----
    E-7-10---------------------------------7-

    (Am)
    
    e--------------------5----8----12-8-16-
    B--------------5-------5----10---------
    G-----------5----5---------------------
    D-------7----7-------------------------
    A---7-----7----------------------------
    E-5---8--------------------------------


    conte
    Veterano
    # jan/04
    · votar


    tem umas tríades aki tb , mto boa pra treina abertura
    Maior (G)

    e------------------10------------------------------------
    B-------------8-12----12-8----------------------------------
    G-----------7--------------7-----------------------------
    D-------5-9------------------9-5---------------------------
    A-----5--------------------------5-----------------------
    E-3-7------------------------------7-3---------------------

    menor (A)

    e--------------------12----------------------------------
    B--------------10-13----13-10-------------------------------
    G------------9----------------9--------------------------
    D-------7-10--------------------10-7------------------------
    A-----7------------------------------7-------------------
    E-5-8----------------------------------8-5-----------------


    DIMEBAG DARREL
    Veterano
    # jan/04
    · votar


    Thanks!!!

    SODAPOP
    Veterano
    # jan/04
    · votar


    Putz que legal!

    meiomundo
    Veterano
    # jan/04
    · votar


    A guitar player desse mês tem esse assunto na capa.

    Alguém
    Veterano
    # jan/04
    · votar


    Arpejo prá tocar no violão?

    http://alt.venus.co.uk/weed/music/classtab/hvlet01.txt

    hehehe.

    Alguém
    Veterano
    # jan/04
    · votar


    Se quiser ouvir...

    http://alt.venus.co.uk/weed/music/classtab/hvlet01.mid

    A música é do Heitor Villa-Lobos.

      Enviar sua resposta para este assunto
              Tablatura   
      Responder tópico na versão original
       

      Tópicos relacionados a Podem me passar uns arpejos por favor.