Poste suas frases aqui (construção de frases na prática)

    Autor Mensagem
    g.wilhelms
    Veterano
    # mai/12 · Editado por: g.wilhelms


    O objetivo não é fazer um acervo de frases para serem decoradas, mas sim entender na prática a construção de frases, com a concepção de cada um, ou seja, ao fazermos isso estaremos aprendendo, com as ideias de cada um. Seria interessante se postássemos frases feitas de improviso. Também sintam-se a vontade, para pegar a harmonia postada por outra pessoa, e postar uma frase em cima dessa harmonia, pois assim estaremos vendo diferentes possibilidades sobre a mesma coisa.

    Para começar :

    Gm7          Eb7M        Am7(b5)       D7
    e----------------------------8--8--8----------------
    B--8--8--3/8-----------------------------------15-13
    G---------------7--7----7--------------12-14-12----
    D---------------------8-----------------------------
    A---------------------------------------------------
    E---------------------------------------------------


    Ps: acho que seria melhor postar na forma de partitura, por causa das divisões rítmicas, mas muita gente aqui não sabe ler, então pode ser em tab mesmo ?

    guizimm
    Veterano
    # mai/12
    · votar



    e------------------------------------------------------
    B---9p7------------------------------------------------
    G---9p7-----7~------------7h9-7~~--------7--------------
    D--------9-------9-7h9~~-----------9-7h9---9~~----------
    A------------------------------------------------------
    E------------------------------------------------------


    CaioRobertoBR
    Veterano
    # mai/12
    · votar


    Minha frase: Se nada der errado, tudo vai dar certo!!

    By: Eu

    guizimm
    Veterano
    # mai/12
    · votar


    CaioRobertoBR
    bem pensado

    g.wilhelms
    Veterano
    # mai/12
    · votar


    Se nada der errado, tudo vai dar certo!!

    Belíssima frase. Usou pentatônica? rsrs

    g.wilhelms
    Veterano
    # mai/12 · Editado por: g.wilhelms
    · votar


    Nesta eu usei o arpejo da tétrade de Dm7, sobre um acorde de Cm7. Também é interessante notar, que eu usei uma nona como repouso sobre Fm7, :

     Cm7             Fm7  
    e----5----------------------------------------------
    B-------6--------------8----3-1--- -----------------
    G-----------7-5--8----------------------------------
    D---------------------------------------------------
    A---------------------------------------------------
    E---------------------------------------------------


    g.wilhelms
    Veterano
    # mai/12
    · votar


    Ninguém?

    g.wilhelms
    Veterano
    # mai/12
    · votar


    Valei-me Thor, que tópico fracassado. Se outra pessoa tivesse feito, me daria vergonha alheia. No próximo que fizer eu falo do Della Vega, ou do MAB, para ter mais ibope.

    guizimm
    Veterano
    # mai/12
    · votar


    g.wilhelms
    posta umas frases do slash pra ve se rende alguns coments

    g.wilhelms
    Veterano
    # mai/12
    · votar


    posta umas frases do slash pra ve se rende alguns coments

    Bem nessa ,rsrs.

      Enviar sua resposta para este assunto
              Tablatura   
      Responder tópico na versão original
       

      Tópicos relacionados a Poste suas frases aqui (construção de frases na prática)