Truques do Jimmy page

Autor Mensagem
Gab
Veterano
# jan/04


Pessoal, vamos postar aqui os truques, licks,pedais , qquer coisa sobre o jimmi page
Aqui vai um lick bem loco(solo Communication breackdown)

e------12------------------------------------------------
B----12--15p-12---------------------------------------------
G-14b-----------------------------------------------------
D------------------------------------------------------
A------------------------------------------------------
E------------------------------------------------------
Tocar varias vezes o mais rapido possivel

GuitarHouse
Veterano
# jan/04
· votar


putz
isso ai eh de MUIIIIIIIIIITo antes dele...

jimmypagelf
Veterano
# jan/04
· votar


Gab

amem rsrsrsrrsrsrs

Gab
Veterano
# jan/04
· votar


Acordes com o dedão na Sexta corda:



!

e-5---------7--------------------------------------------
B-5----8----5----7-----------------------------------------
G-6----6----6----6-----------------------------------------
D-7----7----7----7----------------------------------------
A-7----X----X----X-----------------------------------------
E-5*---5*---5*---5*-------------------------------------------A A(?) AAdd9 A6(eu acho)
*=usar dedão p. pressionar as cordas.

Gab
Veterano
# jan/04
· votar


Benda atras do traste pressionado: Toque uma nota qualquer, e depois com a mão direita(palheta)puchar com força a corda atraz do traste precionado, tremendo a mão exageradamente(fara som de alavanca)(pode desafinar)

Gab
Veterano
# jan/04
· votar


Bend atras do nut: tocar um armonico naturas(como na Intro de dazed and confuzed) e precionar o pedaco da corda que fica preso entre o nut e as tarrachas, fazendo assim um vibrato exagerado e estranho

Gab
Veterano
# jan/04
· votar


Afinaçoes estranhas usadas por page:
D-A-D-G-A-D(Grave-Agudo)-afinacao q ele usava ao tocar kashmir e outras, aqui vai a seq. de acordes de uma parte de kashmir com esta afinação:

e---------------------------------------------------
B-------------------------------------------------
G-2--3--4--5--7--2--3--4--5--------------------------------
D-0--0--0--0--0--0--0--0--0---------------------------------
A-5--5--5--5--5--5--5--5--5--------------------------
E-0--0--0--0--0--0--0--0--0-----------------------------


Gab
Veterano
# jan/04
· votar


Afinacao estranha 2:
D-A-D-G-B-D
Afinacão usada para Going to california
Um pequeno pedaço desta musica com esta afinação:

e-0---7---7---7---7---7---7---7--5----4--------------------
B---7---8---7---------------7------------3----5--3-----
G---------------9---7---9---------------------------------
D------------------------------------------------------
A------------------------------------------------------
E------------------------------------------------------


nightcrawler
Veterano
# jan/04
· votar


num to entendendo nada

Gab
Veterano
# jan/04
· votar


Jimmi page toca violão com os dedos,produzindo um som mais suave do que com palheta.
Sua les paul apresenta knobs push pull p/. separar as bobinas e o som de seu Humbuker ficar mais parecido com o de um single coil
Na gravação de albuns Jimmi usava apenas dois modelos principalmente, a Telecaster que ganhara de jeff beck, e comessou a usar uma lespaul a partir do segundo album, e a partir do quarto album ele tambem usava uma Esd-1720( ou algo assim) Double neck.
Sua lespaul apresenta um captador Gibson 500 na ponte.

Dave Murray
Veterano
# jan/04
· votar


vix... esse lick q vc postou ai no primeiro post qm criou foi praticament o Adao, quando tava num momento de inspiraçao enquanto dava nome aos animais... UAEhuAHEuheAuhAEuHeuHAea

Gab
Veterano
# jan/04
· votar


nightcrawler
O que vc não ta entendendo?

Gab
Veterano
# jan/04
· votar


Dave Murray
Mas ele usava, e muito rapido, eu como so tenho um violão complica pra fazer
Jimmy usava vários licks assim em seus solos, assim como no solo de stairway to Heaven:


e------------------------------------------------------
B-15brp13--------------------------------------------
G---------14 Varias vezes (eu sei que é em tercinas..)
D------------------------------------------------------
A------------------------------------------------------
E------------------------------------------------------


GuitarHouse
Veterano
# jan/04
· votar


outro lick ai

todos os licks ai sao oriundos do BLUES tradicional...

Dave Murray
Veterano
# jan/04
· votar


varios kras usam isso...
Randy rhoads no solo de Mr crowley
Adrian smith no solo de Powerslave...
e uma infinidade.. eh frase de blues isso

Gab
Veterano
# jan/04
· votar


lICK DO SOLO DE "OVER THE hILLS AND FAR AWAY":

e------10------------------------------------------------
B--10b---(10)---10-------------------7------------
G-------------8b----(8)------7---7---9b---------------
D-----------------------7h-9---9---------------------------
A------------------------------------------------------
E------------------------------------------------------
Notas entre parenteses=tocar soltando bend

Gab
Veterano
# jan/04
· votar


Inicio do solo de arco de Dazed & Confuzed
E-|-------------------------------------------------|
B-|-------------------------------------------------|
G-|-------------------------------------------------|
D-|-------------------------------------------------|
A-|-------------------------------------------------|
E-|-3\0---3\0---3\0-----7/10----7/10----------------|

Gab
Veterano
# jan/04
· votar


Riff de Dancing Days(D-G-D-G-B D)
               End 1  End 2

e---------------!------!---5------------------------------
B-2-3--2--3p2p0-!-0--3b!-7-5-----------------------------
G-0----0--0-----!-0--3b!-0------------------------------
D-0----0--------!------!------------------------------------
A---------------!------!---------------------------------
E---------------!------!---------------------------------


Gab
Veterano
# jan/04
· votar


E:------------------------5-
B:------------------3^4^5--- oitava de um Lick de
G:------------2---2--------- black Dog
D:--------2-4---4-----------
A:--0-3^4-------------------
E:--------------------------


e------------------------------------------------------
B------------------------------------------------------
G------------------------------------------------------
D------------------------------------------------------
A------------------------------------------------------
E------------------------------------------------------


Gab
Veterano
# jan/04
· votar


Pô gente, posta ai alguma coisa, ces devem conhecer alguma coisa do Page!

Gab
Veterano
# jan/04
· votar


Pô , ninguem vai responder!?

guilhermecarli
Veterano
# jan/04
· votar


eu sei q ele é o melhor guitarrista de todos os tempos, mas as coisas q ele fazia eu chamo de milagres e não de truques, isso na minha opinião

ledzacca
Veterano
# jan/04
· votar


meu o que o pessoal fala é verdade, depois do led zeppelin, nada mais foi inventado, eles foram uma das banda com mais variedades de estilo escalas e essas coisas, bom pra comeca o jimi page nem usava escala direito, o john paul jones ate reclamava disso com ele.
e se voces quiserem saber a respeito do estilo do jimi page, facam um misto de blues, rock de uma forma sem nocao mas com categoria, fazendo isso voce tocara parecido com ele,
flw ae brothers in rock

meiomundo
Veterano
# jan/04
· votar


Gosto muito da afinação de Friends
C - A - C - G - C - E

inthelight
Veterano
# jan/04
· votar


valeu GAB, muito bom esse topico!

outras afinações;

DGCGCD (The Rain SOng, versão de estudio)
DADGAD (Kashmir, White Summer, Black Mountain Side, Swan Song)
DBDGBD (That's The Way)

CACGCE (Bron-Yr-Aur)

Escalas mais usadas: Pentatonica de Em e Am

Ah, e ele usava um String Bender, q eleva a corda Si em um tom, para tocar Ten Years Gone ao vivo

Tripa Seca
Veterano
# jan/04
· votar


usar o dedão na mizona eh mais velho que andar pra frente...


eu achava que eu tinha "inventado" fazer uns vibratos esquisitos na ponte(de les pauls) da guitarra com o dedo, mas ouvi falar que ele fazia isso antes de eu nascer...

bocao
Veterano
# jan/04
· votar


inthelight
Fala aí, veío!!!!!!!!!!!

Acho legal que o Jimmy Page toca Rain Song com afinação em G aberto na versão de estúdio e ao vivo ele toca com a padrão. Aliás, em estúdio, acho que ele toca a guitarra com afinação padrão e o violão com afinação Open G.

inthelight
Veterano
# jan/04
· votar


bocão

e ae cara!!

é, The Rain Song ao vivo ele tocava na afinação padrão até 75, mas se não me engano em 79 e 80 ele tocava em A aberto. ou seja, um tom acima da versão de estudio.

Arghinimigo
Veterano
# jan/04
· votar


to ligado q o page usa uma danelectro em um show(q por acaso está no novo dvd duplo) alguem faz idéia do modelo?

naka
Veterano
# jan/04
· votar


Pessoal, vamos postar aqui os truques, licks,pedais , qquer coisa sobre o jimmi page
Aqui vai um lick bem loco(solo Communication breackdown)

e------12------------------------------------------------
B----12--15p-12---------------------------------------------
G-14b-----------------------------------------------------
D------------------------------------------------------
A------------------------------------------------------
E------------------------------------------------------

Tocar varias vezes o mais rapido possivel

isso ai lick dinossauro !
mas acho q quem comeco usa mto ele foi o hendrix

Enviar sua resposta para este assunto
        Tablatura   
Responder tópico na versão original
 

Tópicos relacionados a Truques do Jimmy page