Como colocar cifras e tablaturas no fórum

    Autor Mensagem
    admin
    Moderador
    # ago/02


    Pessoal,

    atendendo à pedidos, adicionamos a funcionalidade de colocar tabs e cifras de forma mais organizada aqui no fórum.

    Para isto, basta clicar no ícone TAB acima e digitar o texto que você deseja que tenha uma formatação especial.

    Veja o resultado abaixo.


    A A
    Lá em cima do cê
    Bm Bm Bm Bm
    Si menor em cima do eme


    |--2-------------9-|
    |----3-------------|
    |------4-------8---|
    |--------5---7-----|
    |----------6-------|
    |----------------9-|



    É isso aí... é bem simples... :o)

    Abração e bom proveito,

    Samuel Vignoli

    Anônimo
    # ago/02 · Editado por: Admin


    |---------------------------0-1-3-| 
    
    |---------------------0-1-3------ -|
    |------------------0-1------------|
    |------------0-2-3----------- -----|
    |------0-2-3----------------------|
    |-0-1-3------------------ ---------|


    |-------------------------3-5-|
    |-------------------- 3-5-6----|
    |--------------2-4-5----------|
    |---------2-3-5---------- -----|
    |----2-3-5--------------------|
    |-3-5------------------------ -|


    |------------------------5-7-8-|
    |-------------------5-6-8--- ---|
    |--------------4-5-7-----------|
    |-----------5-7--------------- -|
    |------5-7-8-------------------|
    |-5-7-8------------------------|


    ------------------------------7-8-9-|
    ------------------------- 8-10-------|
    ------------------7-9-10------------|
    -----------7-9-10 -------------------|
    ------7-8-9-------------------------|
    -7-8-9--- ---------------------------|


    |-------------------------------7-8- |
    |--------------------------8-10-----|
    |-------------------7-9-10-- --------|
    |-------------7-9-10----------------|
    |------7-8-10------- ----------------|
    |-8-10------------------------------|


    |------- ---------------------8-10-12-|
    |----------------------10-12---------|
    |---------------9-10-12--------------|
    |----------91012------------ ---------|
    |-----81012--------------------------|
    |1012------------- -------------------|


    Ae galera, esse último desenho ficou "apertadinho" por causa do espaço na caixa de texto, lembrando,
    ESSES DESENHOS SÃO DA ESCALA DE C(Dò)MAIOR.Falow!!!
    testando!!

    Carlos
    # ago/02


    Valeu SAMAUEL!!!!

    Samuel Vignoli
    # ago/02


    Falou, cara...

    qualquer coisa, estamos aí...

    Abração!

    Samuel Vignoli
    # ago/02


    Ah...

    cuidado prá vc não escrever tabs muito grandes... pq senão a tela fica muito grande e não existe quebra de linha automática (tem q apertar enter!) quando se usa o comando TAB. :o)

    Abraço!

    Carlos
    # ago/02


    Samuel!!

    Nao sei se é pedir muito!!!

    Mas tem como fazer uma maneira de se colocar imagens no fórum.

    Um exemplo, se eu quiser explicar um tema sobre Partitura, eu necessitaria de colocar algumas imagens e no fórum nao teria como.

    Abraço!!!!

    Nossa eu já estou abusando da boa vontade!!!

    admin
    Moderador
    # ago/02
    · votar


    Carlos,

    não sei se é legal permitir isso por que existe muita gente que não vê o fórum como ferramenta e - com certeza - iria colocar fotos pornográficas aqui... 20 anos de praia... :oP

    Esta funcionalidade até existia no programa que gerencia o fórum... eu que retirei...

    Abraços,
    Samuel Vignoli

    Carlos
    # ago/02


    Samuel!!!


    OK!!!! Mas eu acharia uma boa idéia pois assim, poderiamos colocar partitura que facilitaria bastante, em muitas coisas.

    Um exemplo eu quero passar um lick para o pessoal e nao dá pois o que adiantaria eu mandar uma tablatura e a pessoa nem ter ideia dos tempo das notas.

    Nesse caso a partitura seria uma melhor solução!!!!

    Mas Tudo BEM ; )

    admim
    # ago/02


    [/T] TESTANDO... [T]

    [/b] AMO ROCK AND ROLL [b]
    [/i] TESTANDO... [i]
    [/u] OUÇAM ROCK AND ROLL [u]

    admin
    # ago/02


    AHH TÁ!!!
    ENTENDI!
    VC TEM QUE ESCREVER NO MEIO!
     EU ACHO! 


    jo
    # ago/02


    c d G a
    cú beim nego

    Anônimo
    # ago/02


    teste A


    Anônimo
    # ago/02


    tes[A]te


    Anônimo
    # ago/02


    A Bm
    testando


    Anônimo
    # ago/02


    [A]ultimo[/Bm] teste

    Igor
    # ago/02


    7 8 9 0


    Anônimo
    # out/02


    aaaaaa aaaaaaaaaaaaa aaaaaaaaaaaaaaaaaa
    123 12 313 2 --2--2--3--4--5--6--7--8-89-9-


    Rokeiro
    # nov/02


    [i][/i]

    Rokeiro
    # nov/02


    Alguem tem mais algumas tablaturas boas para eu treinar

    Anônimo
    # nov/02


    Ai Adim manda mais algumas Tab

    Gui
    Veterano
    # dez/02
    · votar



    G|--------------------|
    D|--------------------|
    A|------5-------7--5--|
    E|-5--7---5--8--------|


    xMETAL_WARRIORx
    Veterano
    # dez/02
    · votar


            .-/                                       .-.
    
    _.-~ / _____ ______ __ _ _ _ ___ | ~-._
    \:/ -~|| __||_ __// || | | | /| | / __/| .\:/
    / || __|:| |\:/ ' || |__| |_/:| || (:/:| \
    / /\/| ||____|:|_|:/_/|_||____|____||_|:\___\| |\ \
    / /:::|.:\::::\:\:\:|:||:||::::|:::://:/:/:::/:.|:\ \
    / /:::/ \::\::::\|\:\|:/|:||::::|::://:/\/:::/::/:::\ \
    / .::\ \-~~~~~~~ ~~~~ ~~ ~~~~~~~~ ~~ ~~~~~-/\/:.. \
    /..:::::\ /:::::..\
    /::::::::- -::::::::\
    \:::::-~ ~-:::::/
    \:-~ ~-:/



    Hetfield
    Veterano
    # jan/03
    · votar


    teste         TESTE


    Hetfield
    Veterano
    # jan/03 · Editado por: Hetfield
    · votar


    <Table>
    <tr><td>jfdhvjh</td></tr>
    <tr><td>teste</td></tr>
    </table>

    nukebass
    Veterano
    # jan/03
    · votar


    só muda a fonte???


    admin
    Moderador
    # jan/03
    · votar


    nukebass: Não. Além de mudar para uma fonte monoespaçada (o que torna os desenhos mais bonitos prás tabs e as cifras certinhas), faz com que os espaços que vc digita funcionem como espaços de verdade.

    Tipo         assim. Sacou?   :o)


    nukebass
    Veterano
    # jan/03
    · votar


    BLZ...BLZ... saquei!!!

    felipe mark
    Veterano
    # jan/03
    · votar


    teste

      Enviar sua resposta para este assunto
              Tablatura   
      Responder tópico na versão original
       

      Tópicos relacionados a Como colocar cifras e tablaturas no fórum