Acordes e Escalas sombrios

    Autor Mensagem
    ACIDO LISERGICO
    Veterano
    # jul/11


    Citem acordes e escalas que te dão um sentimento de medo,apreensão.

    RickBlues
    Veterano
    # jul/11 · Editado por: RickBlues
    · votar




    e-----------15-----------------------------------------
    B--------14-----14-------------------------------------
    G-----13-----------13----------------------------------
    D--12-----------------12-------------------------------
    A------------------------------------------------------
    E------------------------------------------------------

    Dedilhado: P-i-m-a-m-i Vibre as notas que fica show!



    e-----------(4x)
    B-----------
    G------2--- ------3---(4x) e voltar...
    D---0------ ---0------
    A-----------
    E-----------


    O segundo vi num filme e o primeiro fiz do nada

    ACIDO LISERGICO
    Veterano
    # jul/11
    · votar


    RickBlues
    Legais!
    Toquei e ficou legal.

    LeandroP
    Moderador
    # jul/11 · Editado por: LeandroP
    · votar


    ACIDO LISERGICO

    Trítonos e 2as menores.... Tensos!

    RickBlues
    Veterano
    # jul/11 · Editado por: RickBlues
    · votar


    LeandroP
    Se não me engano tu mesmo Leandro usou um exemplo do Black Sabath,

    e------------------------------------------------------
    B------------------------------------------------------
    G------------------------------------------------------
    D------------------------------------------------------
    A---------------5--------4-----------------------------
    E------3-----------------------------------------------

    Isso é tritono né?

    mr.moretti
    Veterano
    # jul/11
    · votar


    LeandroP

    2a menor = intervalo de invocar tubarões hahahahahaha
    se toca melodicamente, a primeira coisa que vem na cabeça é um tubarão, e nem precisa ter assistido jaws hahahah

    RickBlues
    Veterano
    # jul/11
    · votar


    mr.moretti

    e------------------------------------------------------
    B------------------------------------------------------
    G------------------------------------------------------
    D------------------------------------------------------
    A------------------------------------------------------
    E-0-1-0-1-0-1-0-1-0-1-0-1...---------------------------

    Isso? rsrs

    guizimm
    Veterano
    # jul/11
    · votar


    essas coisas se descobrem sozinho vei,no feeling

    kevinluis
    Veterano
    # jul/11
    · votar


    Que tenso isso LOL

    Oijpedro
    Veterano
    # jul/11
    · votar


    cara, qualquer coisa que tenha tensão, que soe fora do tom, tenha certeza. tinha um intevalo que era proibida no china, por ser muito sombrio, falavam que invocava o demo, esqueci qual é.

    Tamehiro
    Veterano
    # jul/11
    · votar


    Oijpedro


    e------------------------------------------------------
    B------------------------------------------------------
    G------------------------------------------------------
    D------------------------------------------------------
    A------1---------1-------------------------------------
    E-0---------0------------------------------------------
    Oijpedro

    ACIDO LISERGICO
    Veterano
    # jul/11 · Editado por: ACIDO LISERGICO
    · votar


    Oijpedro
    Não sabia que existiam acordes proibidos :S

    Fiz um agora:

    e-1----------------------------------------------------
    B-0----------------------------------------------------
    G-1----------------------------------------------------
    D-0----------------------------------------------------
    A-1----------------------------------------------------
    E-0----------------------------------------------------


    e esse também:

    e----------17------------17----
    B----15----------15------------ 4x



    e--------18----------18---------- 4x
    B--15---------15-----------------


    theblackstrat
    Veterano
    # jul/11 · Editado por: theblackstrat
    · votar


    ACIDO LISERGICO
    qualquer um sob o efeito das suas bikes e chivas
    serão sombrios..esquenta nao..
    hehehe

    Pé de chinelo
    Veterano
    # jul/11
    · votar


    esse primeiro acorde que botaram ai nas cordas graves tb fica medonho:

    e------------------------------------------------------
    B------------------------------------------------------
    G--15---------8----------------------------------------
    D--14---------7---------------------------------------
    A--13---------6---------------------------------------
    E--12---------5---------------------------------------

    Fugitivo
    Veterano
    # jul/11 · Editado por: Fugitivo
    · votar



    e------------------------------------------------------
    B------------------------------------------------------
    G------------------------------------------------------
    D---------------4---------------------------------------
    A------------------------------3------------------------
    E--2----------------------------------------------------


    deixem as notas soarem que fica tenso !

    Mauricio Luiz Bertola
    Veterano
    # jul/11
    · votar


    ACIDO LISERGICO
    Cara, apenas estude a obra do grande Tony Iommi, tanto no Black Sabbath, quanto solo....
    Abç

    Anjus
    Veterano
    # jul/11
    · votar


    Como o Bertola disse, basta estudar as obras do Tony Iommi.

    Para os que nao sabiam, existem intervalos ''proibidos'' que é o tritono como ja citaram, que é a 4 aumentada. O Tony Iommi começou isso com o classico Black Sabbath.

    abraço

    Tsgk
    Veterano
    # jul/11
    · votar


    como o bertola já disse, ouça black sabbath. principalmente o primeiro disco (black sabbath) que pra mim é o mais sombrio.

    Tsgk
    Veterano
    # jul/11
    · votar


    o exemplo usado pelo Fugitivo é a introdução da musica black sabbath.



    ACIDO LISERGICO
    Veterano
    # jul/11
    · votar


    Mauricio Luiz Bertola
    Anjus
    Tsgk
    Valew pelas dicas.
    Vou pegar umas cifras dele.

    Drive30
    Veterano
    # jul/11 · Editado por: Drive30
    · votar


    Os exemplos citados são todos que utilizam a 5 diminuta (ou 4 aumentada) , usado em tritonos (intervalo de 3 toms inteiros que formam consequentemente a 5 diminuta e a oitava, que é usado na musica black sabbath e exemplificado ai pelo fugitivo), o trítono era conhecido como 'diabolus in musica' e ele foi proibido durante a idade média em algumas localidades por musicos religiosos católicos, é largamente usado em metal extremo junto tambem com a 2 menor e escalas exóticas / cromatismos e afins

    Die Kunst der Fuge
    Veterano
    # jul/11
    · votar


    Experimente a escala Dom-Dim e seu respectivo campo harmônico.

    Dá pra conseguir coisas bem sombrias dependendo da maneira que você aplicá-la.

      Enviar sua resposta para este assunto
              Tablatura   
      Responder tópico na versão original
       

      Tópicos relacionados a Acordes e Escalas sombrios