The Offspring/ Mota

    Autor Mensagem
    Léo
    Veterano
    # jan/03


    Alguem sabe tocar a o riff de Mota do Offspring??????

    ServeTheServants
    Melhor arranjo
    Prêmio FCC violão 2008
    # jan/03
    · votar


    Eu sei é assim
    intro/outro
    

    |-------------------------------------------------------------------- |
    |-------------------------------------------------------------------- |
    |-12-12x--12-12-12x--12x--12x--12-12-12-12x--12x--12x--12-12-12-12x-- |
    |-12-12x--12-12-12x--12x--12x--12-12-12-12x--12x--12x--12-12-12-12x-- |
    |-10-10x--10-10-10x--10x--10x--10-10-10-10x--10x--10x--10-10-10-10x-- |
    |-------------------------------------------------------------------- |

    main riff

    |------------------------------------------------------------- ------------|
    |------------------------------------------------------ -------------------|
    |-12-12--12-12-12--12-12-14-15-14-12--10--8-8--8 -8-8--8-10-14-15-14-12-10-|
    |-12-12--12-12-12--12-12-14-15-14-12--10- -8-8--8-8-8--8-10-14-15-14-12-10-|
    |-10-10--10-10-10--10-10-12-13-12- 10---8--6-6--6-6-6--6--8-12-13-12-10--8-|
    |-------------------------- -----------------------------------------------|

    verse

    |-------- ---------------------------------------------------------|
    |--------- --------------------------------------------------------|
    |-12x-xx--x x-xx-xx--xx-xx--12-12-12--x-x--x-x-x--x-x--10--10--10--|
    |-12x-xx--xx -xx-xx--xx-xx--12-12-12--x-x--x-x-x--x-x--10--10--10--|
    |-10x-10--10- 10-10--10-10--10-10-10--6-6--6-6-6--8-8---8---8---8--|
    |------------- ----------------------------------------------------|

    chorus-1st time

    |----------------------------------------------|
    |----------- -----------------------------------|
    |----5*-----------5*-----------5 *-----------5*-|
    |-3*-5*-5**----3*-5*-5**----3*-5*-5**----3*-5*-|
    |- 3*-3*-5**----3*-3*-5**----3*-3*-5**----3*-3*-|
    |-1*----3**----1*----3 **----1*----3**----1*----|
    ^ ^ ^
    |--------------|
    for the second time, play the same as |--------------|
    above but finish with: |----5*----10*-|
    |-3*-5*-8*-10*-|
    |-3*-3*-8*--8*-|
    |-1*----6*-----|

    for the third time, play the same as above but stop at the second arrow
    and play:

    |---------------------------------------------------------|
    |---------------------------------------------------------|
    |-------- -------------------------------------------------|
    |-x-x-3--x-x-3--x- x-5--x-x-5--x-x-5--x-x-5--x-x-5--x-x-5--|
    |-x-x-3--x-x-3--3-3-x--3-3- x--x-x-5--x-x-5--x-x-5--x-x-5--|
    |-1-1-x--1-1-x----------------3-3-x- -3-3-x--3-3-x--3-3-x--|

    then play the rest

    lyrics

    mota!
    every day, well it's the same
    that bong that's on the table starts to call
    my name
    i take a hit and zone out again
    i'll be paranoid and hungry by a quarter to ten
    watching reruns on my tv
    i'm laughing off my ass at three's company
    i don't know if i'm understood
    but hearing jimmy buffett never sounded so good
    your memory's gone and so is your life (your life)
    mota boy
    but losing out just never felt so right
    your enemy's you and so is your life (your life)
    mota boy
    but losing out may feel okay all night
    mota!
    i'm driving down to the barrio
    going 15 miles an hour 'cause i'm already stoned
    give the guy a twenty and wait in the car
    he tosses me a baggie then he runs real far
    i take a hit but it smells like a clove
    oh fuck i got a baggie of oregano
    this ritual is distroying me
    but i guess it could be worse
    it could be methedrine
    your memory's gone and so is your life (your life)
    mota boy
    but losing out just never felt so right
    your enemy's you and your couch is your life (your life)
    but losing out might take
    losing out might take you all night
    mota!
    losing out might feel okay all night
    yeah losing out might feel okay all life


    Léo
    Veterano
    # jan/03
    · votar


    valeu servetheservants

      Enviar sua resposta para este assunto
              Tablatura   
      Responder tópico na versão original
       

      Tópicos relacionados a The Offspring/ Mota