Jogo (ounão) Let's Make a Tab :D

Autor Mensagem
Hugo123
Veterano
# fev/11 · Editado por: Hugo123


Então, hoje tomando banho tive uma ideia até que legal, que tal cada um colocar uma nota na Tab e fazer até que um som bacana ? Ok, aqui em baixo das tabs você pode me xingar e me mandar para aquele lugar o somente postar outra Nota :D

Então quando preenchermos esses 2 Espaços alguem pode se candidatar e tentar tocar :D acaba quando preenchermos os 2

Mario Says : HERE WE GO !!11!1onz!e1

e------------------------------------------------------
B------------------------------------------------------
G------------------------------------------------------
D-3----------------------------------------------------
A------------------------------------------------------
E------------------------------------------------------


e------------------------------------------------------
B------------------------------------------------------
G------------------------------------------------------
D------------------------------------------------------
A------------------------------------------------------
E------------------------------------------------------



e------------------------------------------------------
B------------------------------------------------------
G------------------------------------------------------
D------------------------------------------------------
A------------------------------------------------------
E------------------------------------------------------



e------------------------------------------------------
B------------------------------------------------------
G------------------------------------------------------
D------------------------------------------------------
A------------------------------------------------------
E------------------------------------------------------



Update :

Sempre chequem o de cima e se sua tab estiver diferente, edite e arrume para evitar controversas

Update 2 :

Somente poste outra nota após 2 membros tiverem postado uma nota cada

Update 3 :

Somente 2 Tabs é pouco, iremos Completar 4 \o/

JoaoPauloGuitar
Veterano
# fev/11
· votar


e------------------------------------------------------
B-------5----------------------------------------------
G------------------------------------------------------
D-3----------------------------------------------------
A------------------------------------------------------
E------------------------------------------------------


e------------------------------------------------------
B------------------------------------------------------
G------------------------------------------------------
D------------------------------------------------------
A------------------------------------------------------
E------------------------------------------------------

HeavyMetal_Killer
Veterano
# fev/11
· votar


e------------------------------------------------------
B-------5---3-----------------------------------------
G------------------------------------------------------
D-3----------------------------------------------------
A------------------------------------------------------
E------------------------------------------------------


e------------------------------------------------------
B------------------------------------------------------
G------------------------------------------------------
D------------------------------------------------------
A------------------------------------------------------
E------------------------------------------------------

uma pergunta só, para quem vai os direitos autorais?
kkkkkk'

Hugo123
Veterano
# fev/11
· votar


e------------------------------------------------------
B-------5---3-----------------------------------------
G------------------------------------------------------
D-3---------3------------------------------------------
A------------------------------------------------------
E------------------------------------------------------


e------------------------------------------------------
B------------------------------------------------------
G------------------------------------------------------
D------------------------------------------------------
A------------------------------------------------------
E------------------------------------------------------

uma pergunta só, para quem vai os direitos autorais?
kkkkkk'


Quem for esperto e gravar primeiro kk

celotoledo
Veterano
# fev/11 · Editado por: celotoledo
· votar


Gostei da idéia...

e------------------------------------------------------
B-------5---3----5b(7)-------------------------------------
G------------------------------------------------------
D-3---------3------------------------------------------
A------------------------------------------------------
E------------------------------------------------------


e------------------------------------------------------
B------------------------------------------------------
G------------------------------------------------------
D------------------------------------------------------
A------------------------------------------------------
E------------------------------------------------------

ohm777
Veterano
# fev/11
· votar


A idéia é legal, mas o ideal seria com partitura né...
Assim cada um vai tocar com células rítmicas diferentes.

Jg Destroyer
Veterano
# fev/11
· votar


ohm777
Acho que essa é a graça da coisa hehe

ohm777
Veterano
# fev/11
· votar


Jg Destroyer
É... não tinha pensado dessa forma! :0

JoaoPauloGuitar
Veterano
# fev/11
· votar


ohm777
Posta sua nota ai!!!

Rabbit
Veterano
# fev/11 · Editado por: Rabbit
· votar


e-------------------------6----------------------------
B-------5---3----5b(7)-(7)----------------------------
G------------------------------------------------------
D-3---------3------------------------------------------
A------------------------------------------------------
E------------------------------------------------------


e------------------------------------------------------
B------------------------------------------------------
G------------------------------------------------------
D------------------------------------------------------
A------------------------------------------------------
E------------------------------------------------------


Jg Destroyer
Veterano
# fev/11
· votar



e-------------------------6----------------------------
B-------5---3----5b(7)-(7)----------------------------
G----------------------------6/7--------------------------
D-3---------3------------------------------------------
A------------------------------------------------------
E------------------------------------------------------


e------------------------------------------------------
B------------------------------------------------------
G------------------------------------------------------
D------------------------------------------------------
A------------------------------------------------------
E------------------------------------------------------


rhoadsvsvai
Veterano
# fev/11
· votar


e-------------------------6----------------------------
B-------5---3----5b(7)-(7)---------DRAGON FORCE------------------
G------------------------------------------------------
D-3---------3------------------------------------------
A------------------------------------------------------
E------------------------------------------------------



GAME OVER

Billy The Kid
Veterano
# fev/11
· votar


rhoadsvsvai

uahuahuahuahau

Rabbit
Veterano
# fev/11
· votar


rhoadsvsvai

E é por isso que o Brasil não vai pra frente. Sempre tem alguém querendo aparecer mais do que todo mundo.

HeavyMetal_Killer
Veterano
# fev/11
· votar


rhoadsvsvai

aeuhaaehaeuhaeuhaeuhaaueh²

Billy The Kid
Veterano
# fev/11
· votar


Rabbit
ah, mas essa aí foi massa! xD

Hugo123
Veterano
# fev/11 · Editado por: Hugo123
· votar


ohm777
Acho que essa é a graça da coisa hehe


Exato, assim cada um interpreta como quiser seguindo um padrão :D

e-------------------------6----------------------------
B-------5---3----5b(7)-(7)---------9------------------
G----------------------------6/7--------------------------
D-3---------3------------------------------------------
A------------------------------------------------------
E------------------------------------------------------


e------------------------------------------------------
B------------------------------------------------------
G------------------------------------------------------
D------------------------------------------------------
A------------------------------------------------------
E------------------------------------------------------

Jg Destroyer
Veterano
# fev/11
· votar


Hugo123
Ué, a minha não conta?

Hugo123
Veterano
# fev/11
· votar


Ué, a minha não conta?

Ja Arrumei manolo

Billy The Kid
Veterano
# fev/11
· votar


Hugo123
seria massa depois se o pessoal gravasse, tocando a tab e mandasse! \o/

rhoadsvsvai
Veterano
# fev/11
· votar


Rabbit
e um joguinho vai fazer o brasil ir para a frente? rlx cara eu fui só de brincadeira , se continuar desse jeito vai fazer ovo frito na propria cabeça

Hugo123
Veterano
# fev/11
· votar


Billy The Kid

Exato, e como não tem tempo, iriamos de rock pesado a Blues, em cada uma das gravações :D

iRock
Veterano
# fev/11 · Editado por: iRock
· votar


e-------------------------6----------------------------
B-------5---3----5b(7)-(7)---------9---7------------
G----------------------------6/7----------------------
D-3---------3-----------------------------------------
A------------------------------------------------------
E------------------------------------------------------


e------------------------------------------------------
B------------------------------------------------------
G------------------------------------------------------
D------------------------------------------------------
A------------------------------------------------------
E------------------------------------------------------

Romário Lima
Veterano
# fev/11
· votar


e-------------------------6-----------------------------
B-------5---3----5b(7)-(7)---------9---7------------
G----------------------------6/7------------------7\6~
D-3---------3------------------------------------------
A-------------------------------------------------------
E-------------------------------------------------------


e------------------------------------------------------
B------------------------------------------------------
G------------------------------------------------------
D------------------------------------------------------
A------------------------------------------------------
E------------------------------------------------------

tive que ligar a guitarra pra ve como esse som soaria hehe

Floyd N Roses
Veterano
# fev/11
· votar


Pow...peguei o violão aqui mesmo e ta ficando uma melodia LEGAL viu!!! :D


EXCELENTE IDEIA Hugo123!!! \m/



Aí vai a minha... ;]


e-------------------------6-----------------------------
B-------5---3----5b(7)-(7)---------9---7------------
G----------------------------6/7------------------7\6~
D-3---------3------------------------------------------
A-------------------------------------------------------
E-------------------------------------------------------


e------------------------------------------------------
B-12b(14)~-----------------------------------------
G------------------------------------------------------
D------------------------------------------------------
A------------------------------------------------------
E------------------------------------------------------




...o///

Floyd N Roses
Veterano
# fev/11
· votar


Billy The Kid
seria massa depois se o pessoal gravasse, tocando a tab e mandasse! \o/

Ahhh...isso ia sê MASSA!!! Vamo fazê isso aí hein!!! =D ... ~\o/~

Bereta
Veterano
# fev/11 · Editado por: Bereta
· votar


Mals Floyd, não tinha visto!

e-------------------------6-----------------------------
B-------5---3----5b(7)-(7)---------9---7------------
G----------------------------6/7------------------7\6~
D-3---------3------------------------------------------
A-------------------------------------------------------
E-------------------------------------------------------


e------------------------------------------------------
B-12b(14)~---17b(19)~--------------------------
G------------------------------------------------------
D------------------------------------------------------
A------------------------------------------------------
E------------------------------------------------------

Floyd N Roses
Veterano
# fev/11 · Editado por: Floyd N Roses
· votar


Bereta
Duas coisas:

1 - Já era hora de ir pra tab de baixo [eu acho!]

2 - CADÊ O MEU??!!! °.° ... ;D


...sahSUHSushushass!!!



EDIT.: Sussu man...só falei pra avisá mesmo!!! ;D ... o///

Hugo123
Veterano
# fev/11
· votar


e-------------------------6-----------------------------
B-------5---3----5b(7)-(7)---------9---7------------
G----------------------------6/7------------------7\6~
D-3---------3------------------------------------------
A-------------------------------------------------------
E-------------------------------------------------------


e------------------------------------------------------
B-12b(14)~---17b(19)~---17/16----------------
G------------------------------------------------------
D------------------------------------------------------
A------------------------------------------------------
E------------------------------------------------------

e------------------------------------------------------
B------------------------------------------------------
G------------------------------------------------------
D------------------------------------------------------
A------------------------------------------------------
E------------------------------------------------------

e------------------------------------------------------
B------------------------------------------------------
G------------------------------------------------------
D------------------------------------------------------
A------------------------------------------------------
E------------------------------------------------------

mateusrrm
Veterano
# fev/11 · Editado por: mateusrrm
· votar


e-------------------------6-----------------------------
B-------5---3----5b(7)-(7)---------9---7------------
G----------------------------6/7------------------7\6~
D-3---------3------------------------------------------
A-------------------------------------------------------
E-------------------------------------------------------


e------------------------------------------------------
B-12b(14)~---17b(19)~---17/16-----------------
G-----------------------------------------15----------
D------------------------------------------------------
A------------------------------------------------------
E------------------------------------------------------

Enviar sua resposta para este assunto
        Tablatura   
Responder tópico na versão original
 

Tópicos relacionados a Jogo (ounão) Let's Make a Tab :D