buckethead

    Autor Mensagem
    Anônimo
    # dez/02


    Alguem sabe o nome da musica que o buckethead fez uma introduçao e depois entra o robin fink no rock in rio? ou onde eu acho a tab?
    valeu!!!!!

    Kenji
    # dez/02


    antes de my michelle?
    se for...akilo ñ eh musica eh apenas uma introduçao...tah ela aki...
    Buckethead And Robin Finck Intro before My Michelle at Rock In Rio 3
    
    Tabbed by Lucs


    Main Riff, play it during the whole song:

    |---9-9---12-10-9----7--9--5---------------------------------------------------------------------------|
    |---9-9---12-10-9----7--9--5----5----------------------------------------------------------------------|
    |------------------------------------------------------------------------------------------------------|
    |------------------------------------------------------------------------------------------------------|
    |------------------------------------------------------------------------------------------------------|
    |---9-9---12-10-9----7--9--5---5-----------------------------------------------------------------------|

    Finck(In Construction):
    |------------------------------------------------------------------------------------------------------|
    |------------------------------------------------------------------------------------------------------|
    |------------------------------------------------------------------------------------------------------|
    |------------------------------------------------------------------------------------------------------|
    |------------------------------------------------------------------------------------------------------|
    |------------------------------------------------------------------------------------------------------|

    BucketHead:

    |--------------9-11-12-12^---11---------------9-11-12-12^----10h9p10----16-17-17^--17-16-17^^^^^^------|
    |---9--9----9-------------------9-11-12------------------------------------------------------------14--|
    |------------------------------------------------------------------------------------------------------|
    |------------------------------------------------------------------------------------------------------|
    |------------------------------------------------------------------------------------------------------|
    |------------------------------------------------------------------------------------------------------|

    Outro:

    |---9-9---12-10-9----7--9--5------5-5--2-----4---0------5-5--2------4----------5-5--2-----7------------|
    |---9-9---12-10-9----7--9--5---5--5-5--2-----4---0------5-5--2------4----------5-5--2------------------|
    |------------------------------------------------------------------------------------------------------|
    |------------------------------------------------------------------------------------------------------|
    |------------------------------------------------------------------------------------------------------|
    |---9-9---12-10-9----7--9--5--5---5-5--2-----4---0------5-5--2------4-----0----5-5--2----------2-------|


    Errol
    # dez/02


    Em que site você conseguiu isso Kenji?

    Kenji
    # dez/02


    num forum do guns...eu falei c/ o cara que feiz a tab e ele me passo...

    Dimebag Darell
    Veterano
    # jul/05
    · votar


    po ... eu sei ki u trem tem uns 10 anos jah .. mais tipow... vcs viraum uma versaum do robin ki ele fez pra sussego ??? algum ai tem a tab dela ??

      Enviar sua resposta para este assunto
              Tablatura   
      Responder tópico na versão original
       

      Tópicos relacionados a buckethead