pros fãs do...

    Autor Mensagem
    meteoro
    Veterano
    # nov/03


    essa dai eh pros fãs do joguinho super mario bros do super nintendo..heauaehuaehueah...tah ligado qdo vc entra nos castelinhos q toka uma musikinha...intaum.. aii está a musika pra vcs..ehaueahueaheauh

    D|------5-----2-----3---------|
    A|----------------------------|
    E|---3-----0-----1------------|

    vcs vaum lembrar do ritmo dps de tokar...aehaeuhaeuhae

    LocoLive
    Veterano
    # nov/03
    · votar


    uaehuaeuhae mto loko

    Dave Murray
    Veterano
    # nov/03
    · votar


    essa eh quansdo entra na caverna...o legal eh Mario quando tah fora de tudo..o jogo normal...OverWorld

    niredsystalironledfloyd
    Veterano
    # nov/03
    · votar


    hehahehhah! legal! bem q podiam aproveitar esse topico pa botar musiquinhas de video game! depois posto uma dos jogos de veraum do master sistem aquela do surf era legal! péna q naum lembro direito ai vai ter muito erro hehehe

    Jean
    Veterano
    # nov/03
    · votar


    Huhauahauahahaua legaaaaaaal cara mas eu não toqwuei ainda mas muito show a ideia,huaaaaaaaaaaaaaaaaaaa minha guitarra ta no concerto e que vontade de tocaaaaaaaaaaaaar.Hehehe,vou colocar uma do Pokemo heheheh

    Dave Murray
    Veterano
    # nov/03
    · votar


    a melhor musica d video game eh a do mortal kombat...mui to tezao de tocar...eu vou posta-la...

    meteoro
    Veterano
    # nov/03
    · votar


    6 sabem toka a musikinha qdo eh ligaçao a cobrar???heauhaeuheauh..pra quem nao sabe aii vai ela..haeuhaeuh

    e|------0-----2----4----|
    B|--0-2---2-4---4--5----|
    G|----------------------|

    bom divertimento..huaehuaehueah

    Dave Murray
    Veterano
    # nov/03
    · votar


    meteoro
    dah assim tbm:


    e------3---2-5-2-3------------------------------------------
    B-3-5----5------------------------------------------------
    G------------------------------------------------------
    D------------------------------------------------------
    A------------------------------------------------------
    E------------------------------------------------------


    meteoro
    Veterano
    # nov/03
    · votar


    opaa...num fiko no time certinho alii em cima

    vai d novo intaum..heauheau

    e|-------0-------2-----4----|
    b|--0-2-----2-4-----4--5----|
    g|--------------------------|

    meteoro
    Veterano
    # nov/03
    · votar


    os 2 ultimos ali toka junto...

    meteoro
    Veterano
    # nov/03
    · votar


    haeuhaeueahueahea...q topico ingrçadoo
    haeuheauheauheauhea

    LocoLive
    Veterano
    # nov/03
    · votar


    tem a do inspetor bugiganga

    D------------------------------------
    A-----------2---2-1---1-0---0-------
    E-0--2-3--0---3-----3-----2---------

    ah o resto eu to com preguissa uheuhaeuhuhea

    Dave Murray
    Veterano
    # nov/03
    · votar


    ae mulecada...mortal kombat q eu fiz proceis :

    Dave Murray
    Veterano
    # nov/03 · Editado por: Dave Murray
    · votar


    INTRO 
    
    e-------------10----12-10-------12----15----12----
    B-10-10-13-10----10-------13-13----13----13----13-
    G-------------------------------------------------
    D-------------------------------------------------
    A-------------------------------------------------
    E-------------------------------------------------




    e-------------------------------------------------
    B-------12----13----15-12-------10----12----13-12-
    G-12-12----12----12-------10-10----10----10-------
    D-------------------------------------------------
    A-------------------------------------------------
    E-------------------------------------------------



    RIFF A 
    
    e---------------8-------------------------------8-
    B-10-10-10-10-8---10-10-10-10-8---10-10-10-10-8---
    G-------------------------------9-----------------
    D-------------------------------------------------
    A-------------------------------------------------
    E-------------------------------------------------




    e-----------------
    B-10-10-10--10-10-
    G-----------------
    D-----------------
    A-----------------
    E-----------------



    RIFF B
    
    e----12--------------------------------12-------------------
    B-10----10-13-10-11-10-13-10-11-----10----10-13-10-11-10-13-
    G-------------------------------12--------------------------
    D-----------------------------------------------------------
    A-----------------------------------------------------------
    E-----------------------------------------------------------




    e--------------12--------------------------------12---------
    B-10-11-----10----10-13-10-11-10-13-10-11-----10----10-13-10
    G-------12--------------------------------12----------------
    D-----------------------------------------------------------
    A-----------------------------------------------------------
    E-----------------------------------------------------------




    e--------------
    B-------10-10--
    G-12-12--------
    D--------------
    A--------------
    E--------------



    RIFF C
    
    e-17--17-17-----------18-18-
    B-----------17--------------
    G--------------17--17-------
    D---------------------------
    A---------------------------
    E---------------------------



    a musica eh isso...agora a ordem:

    INTRO [2X]
    RIFF A [2X]
    RIFF B [2X]
    - BREAK -
    RIFF A [2X]
    RIFF B [2X]
    - BREAK -
    RIFF A [2X]
    RIFF B [2X]
    RIFF C [16X]
    RIFF A [2X]
    RIFF B [2X]
    INTRO [2X]

    MORTAL KOMBAT... FLAWLESS VICTORY...

    Dave Murray
    Veterano
    # nov/03
    · votar


    INTRO 
    
    e-------------10----12-10-------12----15----12----
    B-10-10-13-10----10-------13-13----13----13----13-
    G-------------------------------------------------
    D-------------------------------------------------
    A-------------------------------------------------
    E-------------------------------------------------

    .

    e-------------------------------------------------
    B-------12----13----15-12-------10----12----13-12-
    G-12-12----12----12-------10-10----10----10-------
    D-------------------------------------------------
    A-------------------------------------------------
    E-------------------------------------------------

    .
    RIFF A 
    
    e---------------8-------------------------------8-
    B-10-10-10-10-8---10-10-10-10-8---10-10-10-10-8---
    G-------------------------------9-----------------
    D-------------------------------------------------
    A-------------------------------------------------
    E-------------------------------------------------

    .

    e-----------------
    B-10-10-10--10-10-
    G-----------------
    D-----------------
    A-----------------
    E-----------------

    .
    RIFF B
    
    e----12--------------------------------12-------------------
    B-10----10-13-10-11-10-13-10-11-----10----10-13-10-11-10-13-
    G-------------------------------12--------------------------
    D-----------------------------------------------------------
    A-----------------------------------------------------------
    E-----------------------------------------------------------

    .

    e--------------12--------------------------------12---------
    B-10-11-----10----10-13-10-11-10-13-10-11-----10----10-13-10
    G-------12--------------------------------12----------------
    D-----------------------------------------------------------
    A-----------------------------------------------------------
    E-----------------------------------------------------------

    .

    e--------------
    B-------10-10--
    G-12-12--------
    D--------------
    A--------------
    E--------------

    .
    RIFF C
    
    e-17--17-17-----------18-18-
    B-----------17--------------
    G--------------17--17-------
    D---------------------------
    A---------------------------
    E---------------------------

    .
    a musica eh isso...agora a ordem:

    INTRO [2X]
    RIFF A [2X]
    RIFF B [2X]
    - BREAK -
    RIFF A [2X]
    RIFF B [2X]
    - BREAK -
    RIFF A [2X]
    RIFF B [2X]
    RIFF C [16X]
    RIFF A [2X]
    RIFF B [2X]
    INTRO [2X]

    MORTAL KOMBAT... FLAWLESS VICTORY...

    Toupeira
    Veterano
    # nov/03
    · votar


    eu queria a da abertura do Jaspion... o programa de TV.

    Dave Murray
    Veterano
    # nov/03
    · votar


    fica com a letra por inquanto :

    Ei você
    Preste atenção no que eu vou dizer
    Não vai ficar sozinho
    Sou o guerreiro, que vai te defender...

    Contra toda maldiçao,
    Nao havendo soluçao
    Pra sua segurança
    Nao temo entrar em açao

    A paz na terra,
    E em todos os planetas
    É como um sonho que nao pode acabar...

    Jaspion !
    Pela Liberdade, sou
    Jaspion !
    Pela Igualdade, sou
    Eu juro, eu juro, eu juro,
    Nao vou falhar !
    Jaspion !

    { isso ai 2 vezes )

    HuAhUaHuAhUaHuAhUaHuAhUaHuAhUaHuAhUaHuAhUaHuAhUaHuAhUaHuAhUaHuAhUaHuAh UaHuAhUaHuAhUaHuAhUaHuAhUaHuAhUaHuAhUaHuAhUaHuAhUaHuAhUaHuAhUa...Q FALTA DO QUE FAZER....

    LocoLive
    Veterano
    # nov/03
    · votar


    eu sei a do freakasoid sei la como escreve akele kra azul
    parece wicked world do black sabbath heuauheauhe

    meteoro
    Veterano
    # nov/03
    · votar


    Dave Murray

    akela musika ali eh a do orbital?? c naum for como q eo baxo ela??
    haeuhaeuh
    vlw

    Dave Murray
    Veterano
    # nov/03
    · votar


    meteoro
    qual? a do mortal kombat ?
    ( oq eh orbital ? )

    Rafael Bittencourt
    Veterano
    # nov/03
    · votar


    ALGUEN SABE A MUSIK DO COMEÇO DOS SIMPSONS

    Rafael Bittencourt
    Veterano
    # nov/03
    · votar


    ALGUEN SABE A MUSIK DO COMEÇO DOS SIMPSONS

    meteoro
    Veterano
    # nov/03
    · votar


    Dave Murray
    orbital eh uma "banda" sei lah c eh banda...deve c um carinha aii tipo dj...sei lah...procura no kazaa a musika aii mortal kombat do orbital...mas eh Dave Murray
    Rafael Bittencourt
    neim sei..hehehe

    mas a real mesmo q eo queria aprende era akela do bob esponja..naum a do começo ( vive em um abacaxi e mora no mar..bob esponja calça quadrada...) eahueaheauheau
    a do final..qdo termina o episodio..toka uma musikinha mto loka..c alguem aee sabe...manda aeee
    heauaeh

    meteoro
    Veterano
    # nov/03
    · votar


    Dave Murray
    orbital eh uma "banda" sei lah c eh banda...deve c um carinha aii tipo dj...sei lah...procura no kazaa a musika aii mortal kombat do orbital...eh a musika do filme (eo axo)..mas ve lah..hehehe
    Rafael Bittencourt
    neim sei..hehehe

    mas a real mesmo q eo queria aprende era akela do bob esponja..naum a do começo ( vive em um abacaxi e mora no mar..bob esponja calça quadrada...) eahueaheauheau
    a do final..qdo termina o episodio..toka uma musikinha mto loka..c alguem aee sabe...manda aeee
    heauaeh

    meteoro
    Veterano
    # nov/03
    · votar


    mal aee raça...o topico foi 2 vezes...mas o 2º q tah certo
    hehehe

    Jimmy Hammer
    Veterano
    # nov/03
    · votar


    alguem tem a entrada dos cavaleiros do zodiaco? e da vaca e o frango(nossa essa desenterrei HAUhAU)?

    niredsystalironledfloyd
    Veterano
    # nov/03
    · votar


    Rafael Bittencourt
    pega o arquivo gp4! tem aki no cifra

    Jason
    Veterano
    # nov/03
    · votar


    Alex kid:

    B:--7-7----7-7---7-7----7--7 2X
    G:------7-7---7-7----7-7


    E:-----------------------7--10-----------9--12---9-------
    B:--------7--10----8-8-----------10-10-------------10--8--7
    G:--7-7---------------------------------------------

    E:------------------------7--10----------------12--9--10-
    B:--------7--10----8-8-----------10-10-10-10----------
    G:--7-7----------------------------------------


    Só não sei se tá no tempo correto
    Just for fun :))

    Vic Wolk
    Veterano
    # nov/03 · Editado por: Vic Wolk
    · votar


    Essa eu tirei de memoria e nem sei c tah certo ou naum:

    <pre>
    e----------------------------------------------------------
    B----------------------------------------------------------
    G----------------------------------------------------------
    D----------------------------------------------------------
    A-0-x-0---0h2h3p2p0h2h3p--0-x-0---0h2h3p2p0h2h3p--0-x-0----
    E----------------------------------------------------------
    </pre>




    <pre>
    e-----------------------------------------------------------
    B-----------------------------------------------------------
    G-----------------------------------------------------------
    D-------------------------------------------7-7-7---7-7-7---
    A-0h2h3p2p0h2h3p2-----0h2h3p2p0----2--------7-7-7---7-7-7---
    E------------------3------------3------3/5------------------
    </pre>


    Isso ai eh jonny quest heaueahueaaueea! Bom, era um desenho, mas provavelmente deve ter um jogo tb ;)

    Vic Wolk
    Veterano
    # nov/03
    · votar


    niredsystalironledfloyd
    Akele era do summer games ou california games, num lembro direito...

    A musica de entrada eh "louie louie" do chuck berry (tb com versao do motorhead :P)



    e-------------------------------------------------------
    B-------------------------------------------------------
    G-6/7~-------x---7-7-x--9-9-9-x---7-7-x-----------------
    D------7-7-7-x---7-7-x--9-9-9-x---7-7-x--7-7-7-x--------
    A------------x---5-5-x--7-7-7-x---5-5-x--7-7-7-x--------
    E----------------------------------------5-5-5-x--------


    Repete ateh cansar :P

      Enviar sua resposta para este assunto
              Tablatura   
      Responder tópico na versão original
       

      Tópicos relacionados a pros fãs do...