power chords E F#m Bm

    Autor Mensagem
    vitor_svp
    Veterano
    # jun/09


    estou com pressa e nao pesquisei...
    por favor, como se faz power chords de Bm, F#m e E

    janick
    Veterano
    # jun/09 · Editado por: janick
    · votar


    4
    4
    2

    2
    2
    0

    jonas.hetfield
    Veterano
    # jun/09 · Editado por: jonas.hetfield
    · votar


    B5

    e------------------------------------------------------
    B------------------------------------------------------
    G--4----------------------------------------------------
    D--4----------------------------------------------------
    A--2----------------------------------------------------
    E------------------------------------------------------


    F#5

    e------------------------------------------------------
    B------------------------------------------------------
    G------------------------------------------------------
    D---4---------------------------------------------------
    A---4---------------------------------------------------
    E---2---------------------------------------------------


    E5

    e------------------------------------------------------
    B------------------------------------------------------
    G------------------------------------------------------
    D---2---------------------------------------------------
    A---2---------------------------------------------------
    E---0---------------------------------------------------


    vitor_svp
    Veterano
    # jun/09
    · votar


    thank you

    Guita Ibanez
    Veterano
    # jun/09 · Editado por: Guita Ibanez
    · votar


    vitor_svp

    Muito tosca a pergunta e cara de pau q não usou a busca!!! Imagina se todos fizerem isso!!!

    Mas é isso q o jonas.hetfield colocou simples e rápido...

    Penta_Blues
    Moderador
    # jun/09
    · votar


    Boa tarde!!!

    Guita Ibanez
    E o pior é que tem caras com boa vontade pra ajudar...

    Marcosrcf
    Veterano
    # jun/09 · Editado por: Marcosrcf
    · votar


    Pressa? Num vai dizer que vc tava em cima do palco e bateu a dúvida!

    Aqui você ainda aprende alguma coisa...
    http://pt.wikipedia.org/wiki/Power_chord

    Slowhand-
    Veterano
    # jun/09
    · votar


    A tônica e a 5ª, ué...

    darkwolf
    Veterano
    # jun/09
    · votar


    que absurdo..

    Bombastik
    Veterano
    # jun/09
    · votar


    dá zero pra ele!

      Enviar sua resposta para este assunto
              Tablatura   
      Responder tópico na versão original
       

      Tópicos relacionados a power chords E F#m Bm