aprenda de uma vez por toda a escala maior em todo o braço da guitarra

    Autor Mensagem
    ezi
    Veterano
    # out/08 · Editado por: ezi


    nunca mais tenha dúvidas no seu improviso na guitarra, estude a escalas maior de forma prática e efeciente pra nunca mais esquecer ou ficar perdido em um improviso. faça a escala maior com os dedos 1, 2 e 4, e nunca mais se perca nos seus solos. espero que eu possa está contribuindo com a galera que curte a guitarra mais que ainda tem algumas dúvidas.
    essa é a url com o vídeo do estudo da escala: http://www.youtube.com/watch?v=uNIk_Tz8dxI
    e se vc quiser dar uma olhada em uma das minhas músicas que eu fiz fique a vontade, tem mais é só pedir.
    instrumental ezi:
    http://br.youtube.com/watch?v=7jvBl5zkWDI

    ezi
    Veterano
    # out/08
    · votar


    amanhã vou está postando a escala menor, usando o mesmo raciocínio da escala maior.
    aproveitem e podem comentar, estou aberto as críticas e sugestões....
    abraço a todos..

    Clauber guns
    Veterano
    # out/08
    · votar


    ezi
    Pô cara parábens pela iniciativa!!
    Infelizmente no trampo ñ abre video ¬¬'

    Mas assim q der eu vejo!!!!

    ezi
    Veterano
    # out/08
    · votar


    clauber guns.
    Infelizmente no trampo ñ abre video

    pois é brother, eu lancei o vídeo porque eu vi um tópico a respeito de escala maior mas quando dei uma olhada estava tão complicado quanto os métodos tradicionais em livros, e com certeza o audio visual é bem mais fácil...
    assim que puder dar uma assistida creio que vai entender. falow

    jigo__
    Veterano
    # out/08
    · votar


    aew passa esses eskemas in guitar pro

    hehe

    abraços

    Quebrador de Corda Sí
    Veterano
    # out/08
    · votar


    Cara, muito interessante para leigos como eu...
    Acredito que exercícios no Guitar Pró sejam muito interessantes também, se possível cara, mande no meu email algo escrito sobre o tema...
    anderson.zart@hotmail.com
    muito obrigado

    mvmarquezini
    Veterano
    # out/08
    · votar


    Só em casa!!

    Alex_Guitar
    Veterano
    # out/08
    · votar


    Frank Gambale ?!
    ...risos...

    qew
    Veterano
    # out/08
    · votar


    ezi

    bela iniciativa cara, parabéns!

    ezi
    Veterano
    # out/08
    · votar


    pow galera, me desculpem mas eu nunca nem vi o guitar pró meu, não mexo com ele não, mas ouvi dizer que é blz, rrsrsrs...
    mas no vídeo dar pra entender direitinho é só vcs deixar carregar completamente, depois assite, e se não quiser baixar pra si, dar pausa e anota o modelo da escala vai ajudar muito.
    quem quiser baixar o vídeo do youtube e não sabe como, é só ir no site do www.baixaki.com.br e digitar o nome desse programa aki:vdownloader, ele é muito fácil de baixar os videos.

    ezi
    Veterano
    # out/08
    · votar


    partindo dedo 4/  partindo dedo 2 /    partindo dedo 1
    e---------------457----------------579-----------------7910-
    B------------357----------------579----------------7910-----
    G---------246----------------467----------------679---------
    D------246----------------467----------------679------------
    A---245----------------457----------------579---------------
    E--5-----------------57----------------579------------------


    ezi
    Veterano
    # out/08
    · votar


    essa tablatura de cima é a escala de lá maior partindo com o dedo 4 na quinta casa, sexta corda, e dedo 2 e dedo 1, tudo na sexta corda.
    essa outra é a mesma escala abragendo todo o braço da guitarra partindo da 12ª casa quinta corda.
    partindo com o dedo 4 na quinta corda.
    e--------------------------10-12-14-----------------------
    B------------------10-12-14---------------------------------
    G-----------9-11-13-------------------------------------
    D----9 11 12---------------------------------------------
    A- 12--------------------------------------------------
    E------------------------------------------------------


    partindo com o dedo 2 
    e-------------------------------12-14-16---------------
    B-----------------------12-14-15----------------------
    G---------------11-13-14--------------------------
    D-------11-12-14------------------------------------
    A--12-14--------------------------------------------
    E-----------------------------------------------------

    partindo com o dedo 1
    e----------------------------------14-16-17-----------
    B--------------------------14-15-17-------------------
    G------------------13-14-16----------------------------
    D----------12-14-16---------------------------------
    A--12-14-16----------------------------------------
    E------------------------------------------------------


    ezi
    Veterano
    # out/08
    · votar


    bom mais detalhado que isso ai, só vindo aki em minha casa em manaus pra pegar uma aula. rsrsr

    nicida
    Veterano
    # out/08
    · votar


    ezi
    vdownloader é fácil, mas esse site é mais:
    não prescisa baixar nada!

    nicida
    Veterano
    # out/08
    · votar


    quanto à aula, estou esperando carregarn depois comento.

    ezi
    Veterano
    # out/08
    · votar




    ezi
    Veterano
    # out/08
    · votar


    ok galera eu postei logo o vídeo aki pra facilitar o aprendizado, dirvitam-se e estude, porque é muito bom vc ter certeza do que está fazendo e principalmente saber o que está fazendo...

    ezi
    Veterano
    # out/08
    · votar




    ezi
    Veterano
    # out/08 · Editado por: ezi
    · votar


    esse outro é o meu instrumental onde eu aplico a escala maior em boa parte dele, com algumas técnicas é claro, depois podemos está comentantdo a respeito se for do interesse de alguém, vou postar o outro video que é mais melódico.

    Raven_Heart
    Veterano
    # out/08
    · votar


    ezi
    Cara, excelente tópico, parabéns pela iniciativa...explicou de forma simples e direta. Muito bom!

    ezi
    Veterano
    # out/08
    · votar


    beleza galera, novamente aki só que agora pra complementar o assunto e postar a escala menor pra que vc fique logo por dentro do assunto, e aprenda tudo sobre escala maior e menor no braço da guitarra ou violão.





    partindo com o dedo 4
    e-----------------------3-5-7--------------------------
    B------------------3-5-6-------------------------------
    G-------------2-4-5------------------------------------
    D--------2-3-5-----------------------------------------
    A---2-3-5----------------------------------------------
    E--5---------------------------------------------------

    partindo com o dedo 2
    e------------------------5-7-8-------------------------
    B-------------------5-6-8------------------------------
    G--------------4-5-7-----------------------------------
    D---------3-5-7----------------------------------------
    A----3-5-7---------------------------------------------
    E-5-7-------------------------------------------------


    partindo com o dedo 1

    e----------------------------7-8-10--------------------
    B----------------------6-8-10--------------------------
    G-----------------5-7-9--------------------------------
    D------------5-7-9-------------------------------------
    A-------5-7-8------------------------------------------
    E--5-7-8-----------------------------------------------

    partindo com o dedo 4 na 5ª corda 12ª casa

    e--------------------------10-12-13--------------------
    B------------------10-12-13----------------------------
    G-----------9-10-12------------------------------------
    D----9-10-12-------------------------------------------
    A--12--------------------------------------------------
    E------------------------------------------------------

    partindo com o dedo 2 na 5ª 12ª casa

    e------------------------------12-13-15----------------
    B----------------------12-13-15------------------------
    G--------------10-12-14--------------------------------
    D------10-12-14----------------------------------------
    A-12-14------------------------------------------------
    E------------------------------------------------------

    partindo com o dedo 1 na 5ª corda 12ª casa

    e----------------------------------13-15-17------------
    B--------------------------13-15-17--------------------
    G------------------12-14-16----------------------------
    D----------12-14-15------------------------------------
    A--12-14-15--------------------------------------------
    E------------------------------------------------------
    bom galera é praticamente isso as escalas maiores e menores em todo o braço da guitarra, estude em outros tons usando a mesma nomeclatura desses modelos de escala e vc vai está desenvolvendo bastante.

    falow e abraços, se puderem comentar fique a vontade....

      Enviar sua resposta para este assunto
              Tablatura   
      Responder tópico na versão original
       

      Tópicos relacionados a aprenda de uma vez por toda a escala maior em todo o braço da guitarra