transar no escuro

    Autor Mensagem
    greg
    # dez/02


    ae quem manja toca o comeco da musica transar no escuro da charlie brown jr a parte do marcao q tem tapping poe a tablatura ae ou passa no email greg@mpc.com.br

    Anônimo
    # dez/02


    prefiro tranzar no claro...heheehhehe

    luisfree
    # dez/02


    ei anonimo, vai de qualquer jeito, se a gata for boa
    Ei Greg não consigo te ajudar, e a galera tá devagar aqui, 2 dias e ninguem disse nada

    Slash_BH
    # dez/02


    também prefiro no claro...hehehehehe

    no escuro só se a mulher for ruim...kkkkkkkkkkkkkkkkkkkkkkkkkkkkkkkkkkkkkkkkkkkkkkkkkkkkkkkkkkkkkkk kkk

    thiagodoutor
    # dez/02


    pt tptp pttp CHARLIE BROW PT TPTPSPTPSFSSS CHARLIE BROW CHICHICHIHICHCICICHI CHARLIE BROW

    HE HE HE HE !! ESSE CHORAO É UM SACO.


    SOU + UM METALLICA!!

    Sversut
    # dez/02


    Dentre os nacionais, CBJr é cabicera,
    mas não conheço essa música.
    Falowwwww
    Sversut

    Anônimo
    # dez/02


    vai toma no****SLASH MACONHERO FILHO DA*****

    LOW-FI
    # dez/02


    Eu nem curto Charlie Brow, mas como eu to bonzinho hoje eu vou colocar tem essa tab em formato guiatrpro no site mysongbook.
    T T T T
    ------------------------|--12h9h8h7h6--------------------------|
    -- ----------------------|-------------12h9h8h7h6---------------|
    ------ ------------------|------------------------12h9h8h7h6----|
    --4----4-- --4--4--4--4--|-----------------------------------12h|
    --4----4----4- -4--4--4--|--------------------------------------|
    --2----2----2--2-- 2--2--|--------------------------------------|


    T T
    -----------------------------------|------------------------|
    ----- ------------------------------|------------------------|
    ------------ -----------------------|------------------------|
    --9h8h7h6---------- ----------------|------------------------|
    ----------12h9h8h7h6------ ---------|------------------------|
    ---------------------12h9h8h7-6-6 --|--6b---x--x--x--6b---x--|


    T T T T T T T
    ------------------------------|--------------------12h6h7h8h7h6----- -|
    ------------------------------|-----------12h6h7h8--------------12 h8-|
    ------------------------------|--12h6h7h8----------------------- -----|
    ---------------------12h6h7h8-|------------------------------- -------|
    ------------12h6h7h8----------|----------------------------- ---------|
    x-x12h6h7h8-------------------|--------------------------- -----------|


    T
    --------------------------|----|----|----|----|----|----|----|----|
    --7h6---------------------|----|----|----|----|----|----|----|----|
    ------12h8h7h6-7~---------|----|----|----|----|----|----|----|----|
    - -------------------------|----|----|----|----|----|----|----|----|
    -- ------------------------|----|----|----|----|----|----|----|----|
    --- -----------------------|----|----|----|----|----|----|----|----|[T][/T ]

    Anônimo
    # dez/02


    [/T]
    
    T T T T
    ------------------------|--12h9h8h7h6--------------------------|
    ------------------------|-------------12h9h8h7h6---------------|
    ------------------------|------------------------12h9h8h7h6----|
    --4----4----4--4--4--4--|-----------------------------------12h|
    --4----4----4--4--4--4--|--------------------------------------|
    --2----2----2--2--2--2--|--------------------------------------|


    T T
    -----------------------------------|------------------------|
    -----------------------------------|------------------------|
    -----------------------------------|------------------------|
    --9h8h7h6--------------------------|------------------------|
    ----------12h9h8h7h6---------------|------------------------|
    ---------------------12h9h8h7-6-6--|--6b---x--x--x--6b---x--|


    T T T T T T T
    -----------------------------------|--------------------12h6h7h8h7h6------|
    -----------------------------------|-----------12h6h7h8--------------12h8-|
    -----------------------------------|--12h6h7h8----------------------------|
    --------------------------12h6h7h8-|--------------------------------------|
    -----------------12h6h7h8----------|--------------------------------------|
    --x--x--12h6h7h8-------------------|--------------------------------------|


    T
    --------------------------|----|----|----|----|----|----|----|----|
    --7h6---------------------|----|----|----|----|----|----|----|----|
    ------12h8h7h6-7~---------|----|----|----|----|----|----|----|----|
    --------------------------|----|----|----|----|----|----|----|----|
    --------------------------|----|----|----|----|----|----|----|----|
    --------------------------|----|----|----|----|----|----|----|----|[T]
    [/T][T]


    LOW-FI
    # dez/02


    Ai greg, agora saiu certo

      Enviar sua resposta para este assunto
              Tablatura   
      Responder tópico na versão original
       

      Tópicos relacionados a transar no escuro