La Vita Fugge - Vision Divine TAB

    Autor Mensagem
    Villts
    Veterano
    # fev/07


    Intro...
    

    E|---------------------------------------------------------------|
    B|---------------------------------------------------------------|
    G|---------------------------------------------------------------|
    D|-7------------------------------5------------------------------|
    A|-7---10-10-10-8-8-8-7-7-7-5-5-5-5---10-10-10-8-8-8-7-7-7-5-5-5-|
    E|-5------------------------------3------------------------------|

    E|-------------------------------------------------------|
    B|-------------------------------------------------------|
    G|-------------------------------------------------------|
    D|-3-------------------------------2--2-2--2-2--2-2--2-2-|
    A|-3---10-10-10-8-8-8-7-7-7-5-5-5--2--2-2--2-2--2-2--2-2-|
    E|-1-------------------------------0--0-0--0-0--0-0--0-0-|

    Passagem pro riff

    E|---------------------|
    B|---------------------|
    G|---------------------|
    D|-------2-2--2-2--2-2-|
    A|7(AH)~-2-2--2-2--2-2-|
    E|-------0-0--0-0--0-0-|

    Riff:

    E|---------------------------------------------------------------|
    B|---------------------------------------------------------------|
    G|---------------------------------------------------------------|
    D|---------------------------------------------------------------|
    A|-0-0-0-0-0-0-0-0-0-0-0-0-0-0-0-0-15-0-17-0-14-0-15-14h15p14-12-|
    E|---------------------------------------------------------------|

    E|---------------------------------------------------------------|
    B|---------------------------------------------------------------|
    G|---------------------------------------------------------------|
    D|---------------------------------------------------------------|
    A|-0-0-0-0-0-0-0-0-0-0-0-0-0-0-0-0-19-0-20-0-17-0-19-17h19p17----|
    E|---------------------------------------------------------------|

    E|---------------------12h13p12p10-------------------------------|
    B|---------------------------------13p12p10p9--------------------|
    G|--------------------------------------------10p9~--------------|
    D|-10-12---9-10---12---------------------------------------------|
    A|-8--10---7-8----12---------------------------------------------|
    E|---------------------------------------------------------------|


    Refrão(Cuidado com as oitavas, guitarra de 7 cordas)

    C5 F5 G5
    Time is running too fast for me
    E5 F5
    You can't stop its course
    E5 D5 C5
    Never surrender, I'll sleep when I'm dead
    C5 F5 G5
    Time is moving along too fast
    E5
    I can't think straight

    F5 E5 D5
    Won't take all the time that I need
    C5
    If I try I'll always be late

    Interlude


    Reza a lenda que é só palhetada, mas eu uso ligado, e ainda assim erro direto \o\

    E|---------10-12-13-12-10-------------------10-12-13-12-10----------
    B|10-12-13----------------13-12-10-10-12-13----------------13-12-10-
    G|
    D|
    A|
    E|

    E|---------8-10-12-10-8-----------------8-10-12-10-8
    B|-9-10-12--------------12-10-9-9-10-12--------------12-10-9
    G|
    D|
    A|
    E|

    E|---------10-12-13-12-10-------------------10-12-13-12-10
    B|10-12-13----------------13-12-10-10-12-13----------------13-12-10
    G|
    D|
    A|
    E|

    E|15-13-12-13-12-10---------------------
    B|------------------13-12-10------------
    G|---------------------------13-10-9~---
    D|-
    A|
    E|

    Riff de novo...

    Refrao de novo...

    Interlude 2:

    E|---------10-12-13-12-10-------------------10-12-13-12-10
    B|10-12-13----------------13-12-10-10-12-13----------------13-12-10
    G|
    D|
    A|
    E|

    E|---------8-10-12-10-8-----------------8-10-12-10-8
    B|-9-10-12--------------12-10-9-9-10-12--------------12-10-9
    G|
    D|
    A|
    E|

    E|---------10-12-13-12-10-------------------10-12-13-12-10
    B|10-12-13----------------13-12-10-10-12-13----------------13-12-10
    G|
    D|
    A|
    E|

    E|15-13-12-13-12-10---------------------
    B|------------------13-12-10------------
    G|---------------------------13-10-9~---
    D|-
    A|
    E|

    E|---------11-13-14-13-11-------------------11-13-14-13-11
    B|11-13-14----------------14-13-11-11-13-14----------------14-13-11
    G|
    D|
    A|
    E|

    E|----------9-11-13-11-9-------------------9-11-13-11-9
    B|-10-11-13--------------13-11-10-10-11-13--------------13-11-10
    G|
    D|
    A|
    E|

    E|---------11-13-14-13-11-------------------11-13-14-13-11
    B|11-13-14----------------14-13-11-11-13-14----------------14-13-11
    G|
    D|
    A|
    E|

    E|16-14-13-14-13-11---------------------
    B|------------------14-13-11------------
    G|---------------------------14-11-10~---
    D|-
    A|
    E|

    O solo eu não tirei nao =S quem tirar pode corrigir ae =D

    Riff...

    Refrao...

    Riff...

    Finalzinho:

    E|-----------------------------|
    B|-----------------------------|
    G|-----------------------------|
    D|-----5-4-----5-4-7-10-9-5----|
    A|-7-5-3-2-3-5-3-2-5-8--7-3-7--|
    E|-5-3-----1-3--------------5--|


    Ficou meio meia boca mais ta valendo!

    O Solo eu vou tentar pegar e passar pa ca \o/

    Falo ae =D

      Enviar sua resposta para este assunto
              Tablatura   
      Responder tópico na versão original
       

      Tópicos relacionados a La Vita Fugge - Vision Divine TAB