Nomes de tecnicas

    Autor Mensagem
    pikxu
    Veterano
    # fev/07


    Bom...
    tnho 2 anos e meio que toco guitarra....
    porem eu sempre toquei sem um professor de guitarra... e sim com um de violaum....
    eu toko ateh bem soh que o problema eh que eu faço todas essas tecnicas doidas ai mais n sei u nome...
    dai qndo eu vou ensinar alguem eu sempre acabo confudindo...
    QUERIA A AJUDA DE VCS PARA ESCREVEREM OS NOMES DAS TECNICAS E LOGO NA FRENTE COMO QUE ELA EH...

    obs... ñ axei um topico que realmente me esclarecesse... e eu axo que minha duvida eh a duvida de muitos

    abração e me ajudem

    Eddie Van Halen 5150
    Veterano
    # fev/07
    · votar


    Palhetada alternada consiste nem tokar com a palhetada para cima e para baixo.
    Exercicios
    E||------------------------------------------|
    
    B||------------------------------------------|
    G||--4-----------4-----------4-5-7-5-4-------|
    D||----7-5-4-5-7---7-5-4-5-7-----------7-5-4-|
    A||------------------------------------------|
    E||------------------------------------------|

    ------------------------------------------|
    ------------------------------------------|
    --5-----------5-----------5-7-9-7-5-------|
    ----9-7-5-7-9---9-7-5-7-9-----------9-7-5-|
    ------------------------------------------|
    ------------------------------------------|

    ------------------------------------------------|
    ------------------------------------------------|
    --7-------------7-------------7-9-10-9-7--------|
    ----10-9-7-9-10---10-9-7-9-10------------10-9-7-|
    ------------------------------------------------|
    ------------------------------------------------|

    -------------------------------------------------------|
    -------------------------------------------------------|
    --9---------------9---------------9-10-12-10-9---------|
    ----12-10-9-10-12---12-10-9-10-12--------------12-10-9-|
    -------------------------------------------------------|
    -------------------------------------------------------|

    --------------------------------------------------------------|
    --------------------------------------------------------------|
    --11----------------11----------------11-12-14-12-11----------|
    -----14-12-10-12-14----14-12-10-12-14----------------14-12-10-|
    --------------------------------------------------------------|
    --------------------------------------------------------------|

    --------------------------------------------------------|
    --------------------------------------------------------|
    --------------------------------------------------------|
    --------------------12-10-9-----------------10-9-7------|
    --14-12-10------------------12-10-9----------------10-9-|
    -----------14-12-10-----------------12-10-8-------------|

    -------------------------------------------|-------------------------- -|
    -------------------------------------------|-------------------------- -|
    -------------------------------------------|-------------------------- -|
    -----------9-7-5-------------7-5-4---------|-------------------------- -|
    --7--------------9-7-5-------------7-5-3---|-------------------------- -|
    ----10-8-7-------------8-7-5-------------7-|--5-3-3------------L----L- -|


    Atomic
    Veterano
    # fev/07
    · votar


    hammer-on eh quando vc bate o dedo na corda (no traste da nota) e segura, ao inves d palhetar

    pull-off eh quando vc solta "de lado" a corda pra soar a corda solta ou uma nota anterior

    slide eh quando vc vai de uma nota pra outra na mesma corda "deslizando", pode ser palhetando ou sem

    ligado ou legatto eh quando vc usa essas tecnicas c a mao esquerda pra tocar as notas ligadas..

    se alem de usar isso usar o dedo da mao direita pra fazer essas tecnicas e tocar sem nenhuma palhetada ai eh tapping

    e se usar as duas maos "todas" ai eh two hands tapping...

    por hj eh so pessoal \../

    pikxu
    Veterano
    # fev/07
    · votar


    vlw
    mais qru tecnicas mais avançadas tipow sweep picking... qui neim q qui eh mais devo fzer etc..

    _Mr_Wylde_
    Veterano
    # fev/07 · Editado por: _Mr_Wylde_
    · votar


    Cara vc deveria usar a busca antes de fazer um tópico como estes. Mas aí vai uma lista com varias tecnicas com exemplos e explicações mais detalhadas sobre as mesmas:
    http://www.guitarx.com.br/index.asp?url=library_html/paginas_titulos/t ecnicas.htm

    Eddie Van Halen 5150
    Veterano
    # fev/07 · Editado por: Eddie Van Halen 5150
    · votar


    Sweep picking é a arte de conservar a direção da palhetada.
    Exemplo e exercicio(as notas estão na triade de sol maior)
    E||--------------3-7-3-------------|--------------7-------------|
    
    B||------------3-------3-----------|------------8---8-----------|
    G||----------4-----------4---------|----------7-------7---------|
    D||--------5---------------5-------|------5-9-----------9-5-----|
    A||------5-------------------5-----|----5-------------------5---|
    E||--3-7-----------------------7-3-|--7-----------------------7-|
    Modelo de MI Modelo de RE
    ----------------7-10-7---------------|
    --------------8--------8-------------|
    ------------7------------7-----------|
    ----------9----------------9---------|
    -------10--------------------10------|
    --7-10--------------------------10-7-|
    Modelo de Do
    --------------------10-15-10-------------------|
    -----------------12----------12----------------|
    --------------12----------------12-------------|
    -----------12----------------------12----------|
    -----10-14----------------------------14-10----|
    --10----------------------------------------10-|
    Modelo de LA
    --------------------15-------------------|----||
    --------------12-15----15-12-------------|----||
    -----------12----------------12----------|----||
    --------12----------------------12-------|----||
    -----14----------------------------14----|----||
    --15----------------------------------15-|----||
    Modelo de Sol


    Jeff Loomis
    Veterano
    # fev/07 · Editado por: Jeff Loomis
    · votar


    pikxu

    sweep picking é mto utilizado para tocar arpejos , essa técnica consiste em palhetar uma nota por corda sempre no mesmo sentido (ao contrario da alternada , com essa vc palheta de uma vez em uma só direção).

    arpejo por sua vez é tocar separadamente as notas de um acorde...

    num sô nenhum professor , mas acho q vc entendeu!

    Jeff Loomis
    Veterano
    # fev/07
    · votar


    a técnica do chimbinha é mais facil de entender , é só tocar sem nenhum cabo conectado , o som vem do playback , vc só tem q fazer cara de q ta dificil de tocar , balaçar a mão direita no ritmo da musica e a esquerda vc tem q mudar de posição de vez em quando...

    essa é bem facil mas sem dúvida é true...

    jessi
    Veterano
    # fev/07
    · votar


    é jah q é pra tirar as duvidas, alguem sabe se Bsus4,(isso eu acho q é um triade), mais esse "sus" sera q é um tom, tipo tem Fsus$, Asus4, tbm ou sera q so existe esse Bsus4?
    se alguem puder me ajudar eu agradeço.

    Pedro Hendrix
    Veterano
    # fev/07
    · votar


    .::Símbolos mais usadas em tablaturas

    Além dos números que apenas indicam qual corda deve ser ferida em qual casa (traste) existem algumas letras e simbolos comumente usadas para notar determinadas técnicas. Essas notações podem variar um pouco de autor para autor mas as mais comuns são:



    h - fazer um hammer-on

    p - fazer um pull-off

    b - fazer um bend para cima

    r - soltar o bend

    / - slide para cima (pode ser usado s)

    \ - slide para baixo (pode ser usado s)

    ~ - vibrato (pode ser usado v)

    t - tap

    x - tocar a nota abafada (som percusivo)

    ta ai!!!

    pikxu
    Veterano
    # fev/07
    · votar


    _Mr_Wylde_

    vlw cara mais tem um problema...
    eu usei a busca soh que as tecnicas citadas n foram as tecnicas que estava interessado...
    mais vlw a todos...
    foi de mta ajuda...

    Atomic
    Veterano
    # fev/07
    · votar


    jessi
    é jah q é pra tirar as duvidas, alguem sabe se Bsus4,(isso eu acho q é um triade), mais esse "sus" sera q é um tom, tipo tem Fsus$, Asus4, tbm ou sera q so existe esse Bsus4?
    se alguem puder me ajudar eu agradeço.


    isso dai eh um acorde com a 4a no lugar da 3a..
    em vez de B D# F# fica B E F#..

    jessi
    Veterano
    # fev/07 · Editado por: jessi
    · votar


    Atomic

    vlw, Atomic por responder a minha duvida.
    agora deu pra perceber q é um acorde ñ um triade.
    vlw.

    Dead Pixel
    Veterano
    # fev/07
    · votar


    Aproveitando esse tópico...

    Queria saber o que é um POWER CHORD?????

    Desculpa a minha ignorancia...

    Eddie Van Halen 5150
    Veterano
    # fev/07
    · votar


    sao os acordes q dao mais peso a musica...
    imagina todos os acordes maiores...
    imaginou?? agora imagina eles com pestana...
    isso...
    deixe agora só os dedos indicador e o do anel apertando as notas, pode deixar o mindinho tambem....

    pronto vai ficar assim:

    e------------------------------------------------------
    B------------------------------------------------------
    G---------------------------2---------------------------
    D---2---3---4---5---6---7---2--------------------------
    A---2---3---4---5---6---7---0--------------------------
    E---0---1---2---3---4---5------------------------------
    E5 F5 F#5 G5 G#5 A5 =A5

    Copiei isso de um forum RSRSRS

    Dead Pixel
    Veterano
    # fev/07
    · votar


    Eddie Van Halen 5150

    uhahuahuahuha...

    to quase entendendo...vlws!!!

    pikxu
    Veterano
    # fev/07
    · votar


    eh tipow ah batida mais forte com a pestana...
    toca uma musika com batida de mpb com acordes normais...
    dpois toka com batida de grunge exx...

    [/T]
    e------------------------------------------------------
    B------------------------------------------------------
    G------------------------------------------------------
    D--3--x-x--3--x-x--3--x--3-----------------------------
    A--3--x-x--3--x-x--3--x--3-----------------------------
    E--1--x-x--1--x-x--1--x--1-----------------------------
    [/T]

    axo qui assim fika claro o que eh

    pikxu
    Veterano
    # fev/07
    · votar


    Jeff Loomis

    bem explicado vlw

      Enviar sua resposta para este assunto
              Tablatura   
      Responder tópico na versão original
       

      Tópicos relacionados a Nomes de tecnicas