Dicionario de riff e licks

    Autor Mensagem
    Eddie Van Halen 5150
    Veterano
    # fev/07


    Coloque aqui os seus licks e riffs que vc mais gosta
    Coloque o nome da musica e da banda
    VALEW

    Eddie Van Halen 5150
    Veterano
    # fev/07 · Editado por: Eddie Van Halen 5150
    · votar


    Jimi Hendrix - Purple Haze
    
    E||----------------------|----------------------|--------------------------|
    B||----------------------|----------------------|--------8b----------------|
    G||----------------------|-----------------8----|-----7--------------------|
    D||-------8---------8----|-------8---------8----|--9---------7~--L------L--|
    A||----------------------|----------------------|--------------------------|
    E||--6---------6---------|--6---------6---------|--------------------------|

    -------------------------|--------------------------|
    -------------------------|--------8b----------------|
    -------------------------|-----7--------------------|
    --5--0-------------------|--9---------7~--L------L--|
    --x--------5-7~-L--------|--------------------------|
    --------0----------------|--------------------------|

    ------------------------------|---------------------------|
    ------------------------------|---------------------------|
    ------------------------------|---------------------------|
    --5--0------------------------|--5--7--7b-L---5~-L--------|
    -----------<>5-<>7-L------5-7-|---------------------------|
    --------0---------------------|---------------------------|

    -------------------------|-------------------------------|
    -------------------------|-------------------------------|
    -------------------------|-------------------------------|
    --5----------------------|------5--7b-L-5-<>7-L----5--0--|
    -----0----------------0--|--5-7--------------------------|
    --------0--3~--L---------|-------------------------------|

    -------------------------------|
    -----------(0)~--L----0--------|
    -----7--7---9~---L----0--------|
    --9-------------------x--------|
    -------------------------------|
    -------------------------12----|


    Edu Hendrix
    Veterano
    # fev/07
    · votar


    Satch Boggie - Joe Satriani

    ---------------------||-------------------------|--------------------- -------|
    ---------------------||-------------------------|--------------------- -------|
    ---------------------||*------------------------|--------------2h---0- -------|
    ---------------------||*------------------------|--------------------- -------|
    ------------0--3h-0--||---5--0------------3h-5--|--5h-6h-5h-0--------- -3h-0--|
    ---------------------||---------3--5~-----------|--------------------- -------|



    --------------------------|--------------------------||--------------- --------|
    --------------------------|--------------------------||--------------- --------|
    -----2--------0-----------|-------------------------*||--------------- --------|
    -----------4-----0--------|-------------------------*||--------------- --------|
    --4-----5-----------------|--3h-0----------0--3h-0---||--5h-0--------- ---3----|
    --------------------2h-0--|--------3--5~-------------||--------3--2~-- --------|



    ------------------------|-----------------------|--------------------- -|
    ------------------------|-----------------------|--------------------- -|
    --------5--4------------|-----------------------|--------------------- -|
    --------4--4------------|-----------------------|--------------2------ -|
    --5--4------------5h-0--|--7h-0------------5----|--7h-0--------------- -|
    ------------------------|--------5--4~----------|--------3h-0-----0--- -|



    --------------------------------|----------------------|
    --9----8----7----6----5----4----|--3-------------------|
    --7----6----5----4----3----2----|--1-------------------|
    --9----8----7----6----5----4----|--3-------------------|
    --------------------------------|-------------0--3h-0--|
    --------------------------------|----------------------|

    Phantom Of Death
    Veterano
    # fev/07
    · votar


    Smoke On The Water ;D

    nem preciso por a tab ;D

    daniel_guitar
    Veterano
    # fev/07
    · votar


    o riff do começo de black in back de ac/dc nem precisa por o tab aqui tb

    daniel_guitar
    Veterano
    # fev/07
    · votar


    um riff que gosto tb a parte do talk box de livin on a player de bon jovi



    e------------------------------------------------------
    B------------------------------------------------------
    G------------------------------------------------------
    D------------------------------------------------------
    A----7---5---------5--------------------------------------
    E--0---7---0--0--7-----------------------------------------


    UGO_RJ
    Veterano
    # fev/07 · Editado por: UGO_RJ
    · votar


    e---------------------------9------7---------------------

    B------------------------7----------8--------------------

    G---------------------9--------------15-----------------11--

    D------------------12------------------8---------------14---

    A-----9----7----8------------------------7--------15---------

    E---7--------9-----------------------------8---22-----------



    eu chamo de Solo Trú From Hell, tem q ser feito em 245bpm

    ki_suco
    Veterano
    # fev/07
    · votar


    aquela parte da satch boogie é assim na realidade:

    e------------------------------------------------------
    B--------------------------------0----------------------
    G---------------------------5---------------------------
    D-------------------------4-----------------------------
    A---0h3h0-0h5h0------3--5---------------------------------
    E---------------3-2~------------------------------------
    |-----| deixando soar


    marcelo2711
    Veterano
    # fev/07
    · votar


    Sweet Child O'Mine
    nem preciso colocar a tab também!

    geoito
    Veterano
    # fev/07
    · votar


    Eddie Van Halen 5150
    disse tudo velho
    Hendrix é o rei e purple haze eh fóda =x

    Edu Hendrix
    Veterano
    # fev/07
    · votar


    geoito

    Obrigado!

    Soulface
    Veterano
    # fev/07
    · votar


    Kurt Cobain - Come As You Are
    E|-----------------------------------------------------------|
    
    B|-----------------------------------------------------------|
    G|-----------------------------------------------------------|
    D|-----------------------------------------------------------|
    A|---------0---0---0-------2~--2~--------0---0--------2----2-| (x2)
    E|-0-0-1-2---2---2---1-0---0---0-0-1-2---2---2-2-1-0--0-0----|


    emiliomiguel
    Veterano
    # fev/07
    · votar


    o começo de the audience is listening do steve vai

    Eddie Van Halen 5150
    Veterano
    # fev/07
    · votar


    Knockin' On Heaven's Door                             
    

    D#||------------------------3-------------2-0-------|
    A#||--3-----------------------3---3-----3-----3---3-|
    F#||--0-------------------------0-----2---------2---|
    C#||--0-----------------------------0---------------|
    G#||------------------------------------------------|
    D#||--3---------------------------------------------|

    -----------------0------------------|-------3-------------2-0-------|
    -----------1-----------1------------|--3------3---3-----3-----3---3-|
    --0------0---0-------0---0-0------0-|--0--------0-----2---------2---|
    --0h-2---------2---2-------0h-2-----|--0------------0---------------|
    -------3------------------------3---|-------------------------------|
    ------------------------------------|--3----------------------------|

    ----------------------------------|------------------------------------|
    --------1-------1-----1---1-1-1-0-|------------------------------------|
    ------0---0---------0---0-0-0-0-0-|---------------------7----7--(7)s-5-|
    ----2-------2-----2-------2-2-2-0-|--5----------5-5-x---7----7--(7)s-5-|
    --3-----------3-----------3-3-3-0-|--5----------5-5-x-5-5----5--(5)s-3-|
    ----------------------------------|--3----------3-3-x------------------|

    -----------------------|-------------------------|-------------------|
    -----------------------|-------------------------|-------------------|
    --5------------x-x-x-x-|-------------7----7--x-x-|--5----------------|
    --5------------x-x-x-x-|--5------x-x-7----7--x-x-|--5----------------|
    --3------------x-x-x-x-|--5------x-x-5----5--x-x-|--3----------------|
    -----------------------|--3------x-x-------------|-------------------|


      Você não pode enviar mensagens, pois este tópico está fechado.
       

      Tópicos relacionados a Dicionario de riff e licks