Master of Puppets Riff by Jg Destroyer

Autor Mensagem
Jg Destroyer
Veterano
# jan/07 · Editado por: Jg Destroyer


Ae galera
Com tanta confusao sobre esse riff
resolvi testa
Algem me deu a tab certa, a 01 01
E eu resolvi tentar
na minha primera tentativa
saiu isso ae
eu sei q tem alguns erros
Mas nao treinei
pegei a viola e otkei
saiu isso ae o_O

Apagei o video pq fiko mto trash

Ja ja eu posto o descente xD

Jg Destroyer
Veterano
# jan/07
· votar


Foi todo feito com paietada pa baxu u_U

Jg Destroyer
Veterano
# jan/07
· votar


o_O UP!
Eu nao sou tao ruim assim nao >.<

Thedekai
Veterano
# jan/07
· votar


no violão?
vc falo no outro tópico que tinha 2 guitarras
e na parte final, eh assim

e------------------------------------------------------
B------------------------------------------------------
G------------------------------------------------------
D-5/4------5/4-----------------------------------------
A-5/4------5/2-----------------------------------------
E-3/2-p0---3/2-p0--------------------------------------


a parte eh feita em powerchords e nao apenas soh nas notas tonicas

Jg Destroyer
Veterano
# jan/07
· votar


vc falo no outro tópico que tinha 2 guitarras
Me mostre esse maldito topico >.<

ESP
Veterano
# jan/07
· votar


lerdeza q deu até sono.

Thedekai
Veterano
# jan/07
· votar


http://forum.cifraclub.com.br/forum/3/67516/#12

Jg Destroyer
Veterano
# jan/07
· votar


ESP
ahahhaha
olhando bem ta lerdo msm
Vo grava +rapido

Jg Destroyer
Veterano
# jan/07
· votar


Thedekai
C ta loko?
le direito a parada

Thedekai
Veterano
# jan/07
· votar


Jg Destroyer
aff ta certo heaueauhea falei merda, pq o cara pergunto qual a tua guitarra
ai embaixo tu falo memphis e washburn n sei oq la, ai achei q era tua guit
malz, mais entao cara
o riff final desse video eh daquele jeito q eu escrevi ai em cima, se eu tivesse com mic eu gravava pa t mostra mais to sem =/

Jg Destroyer
Veterano
# jan/07
· votar


Thedekai
Ta beleza
Eu vi o kirk tokando ali
ele toka

---5
---3

e no final

---2
---0

Ms valew

Eu vo grava + rapido aki
xD

Jg Destroyer
Veterano
# jan/07 · Editado por: Jg Destroyer
· votar


Galera vo posta um outro video dps
Fiko um real lixo isso ae ^^

Jeff Loomis
Veterano
# jan/07
· votar


é , vc falou um monte de mim la no outro topico , mas eu toco essa musica melhor q vc.

ta errada tab q vc pegou , o final é com power chords e tem uma nota q é tocada duas vezes , e vc só tocou uma só q por mais tempo.

quanto a palhetada pra baixo , parabens , vc é bom nisso...

Thedekai
Veterano
# jan/07
· votar


Jeff Loomis
e tem uma nota q é tocada duas vezes

é verdade nao mencionei isso
eh nesse riff q eu vo passa agora

Jg Destroyer
Veterano
# jan/07
· votar


Jeff Loomis

Pois e eu vo pega a tab certa aki....

xD

Jg Destroyer
Veterano
# jan/07
· votar


e tem uma nota q é tocada duas vezes
q nota e esa?

Thedekai
Veterano
# jan/07
· votar



e------------------------------------------------------
B------------------------------------------------------
G------------------------------------------------------
D------------------------------------------------------
A-----2-----3-----4-----3----2-2-----------------------
E-0-1---0-1---0-1---0-1---0-1--------------------------
PMPM PMPM PMPM PMPM PMPM


ESP
Veterano
# jan/07
· votar



e------------------------------------------------------
B------------------------------------------------------
G------------------------------------------------------
D------------------------------------------------------
A---2-2------------------------------------------------
E------------------------------------------------------


Thedekai
Veterano
# jan/07
· votar


fico moh porca pq acabei de passar, nao copiei de nenhum site
a e PM = palm mute hehehe vc deve sabe

Jg Destroyer
Veterano
# jan/07
· votar


A sakei
sim pm eu sei
ms tipo nao fiz ali pq se nao ngm ia ouvir sako?
eu to sem bateria pra por no violao, ai nao da pra liga ele

Jeff Loomis
Veterano
# jan/07
· votar


q nota e esa?


é B , tocada no final do segundo compasso duas vezes.

Thedekai
Veterano
# jan/07
· votar


pow se vc curte tanto iron maiden, como vi nos otros topicos
pq nao compra logo uma guit? aehuah

Jeff Loomis
Veterano
# jan/07
· votar


é a nota q o ESP colocou ali na tab...

Jg Destroyer
Veterano
# jan/07
· votar


pow se vc curte tanto iron maiden, como vi nos otros topicos
pq nao compra logo uma guit? aehuah


Pq o coroa ke q eu termine o curso de viola antes ='(

Jeff Loomis
Veterano
# jan/07
· votar


Apagei o video pq fiko mto trash

ta bom entao...

Jeff Loomis
Veterano
# jan/07 · Editado por: Jeff Loomis
· votar


hahaha , apertei sem querer...

Jeff Loomis
Veterano
# jan/07
· votar


Jg Destroyer

E E E E E E E E Q Q H E E E E E E E E
|---------------------------|---------------------|------------------- -------|
|---------------------------|---------------------|------------------- -------|
|*--------------------------|--7----6----5--------|------------------- -------|
|*--------------------------|--7----6----5--------|------------------- -------|
|---------7--------6--------|--5----4----3--------|------------------- -------|
|---0--0-----0--0-----0--0--|---------------------|--0--0--7--0--0--6- -0--0--|


E E E E E E E E 4x
---------------------------|
---------------------------|
--------------------------*|
--------------------------*|
---------------------------|
--5--0--4--0--3--0--2--0---|


a tab provavelmente vai ficar uma bosta aqui no forum , mas...

...E essa parte , vc toca palhetando só pra baixo tbm?

se sim parabéns , vc é mto guerreiro.

Jg Destroyer
Veterano
# jan/07
· votar


oi

Jg Destroyer
Veterano
# jan/07
· votar


ahaha
essa e mto + facil q a otra
e eu so toko a 1 ano
vc realmente acha essa parte dificil?

Silas Hammett
Veterano
# jan/07
· votar


Com tanta confusao sobre esse riff
Qem faz comfusao com esse riff ou é retardado ou nao tem ouvido.
È só escutar a musica.

Você não pode enviar mensagens, pois este tópico está fechado.
 

Tópicos relacionados a Master of Puppets Riff by Jg Destroyer