duvida fodsss = musica Judgement day (angra)

    Autor Mensagem
    rag_cp
    Veterano
    # jan/07


    e ai galera eu to temtando tirar a musica Judgement day de angra.
    na perte do solo tem ums taping que é muito fodsss e eu não sei fazer.
    alguelm pode me explicar ^^


              T        T        T        T     T
    
    e-9-12-9-14-15-14-12-15-12-15-18-15-12-18-15-18--------
    B------------------------------------------------------
    G------------------------------------------------------
    D------------------------------------------------------
    A------------------------------------------------------
    E------------------------------------------------------


     T                                T     T        T
    
    e--21-18-15-18-15-14-15-14----14-15-19-15-19-15-18-19-18-15--
    B--------------------------15--------------------------------
    G----------------------------------------------------------
    D----------------------------------------------------------
    A----------------------------------------------------------
    E----------------------------------------------------------


      T                 T                 T
    
    e------------------------------------------------------------
    B-17-19-17-15-17-14-15-17-15-14------------------------------
    G-------------------------------16-18-16-18-16-15-16-15------
    D------------------------------------------------------17-16-
    A------------------------------------------------------------
    E------------------------------------------------------------


    é feito tudo em (hammer on / pull off)

    ai galera obrigado desde ja ^^

    rag_cp
    Veterano
    # jan/07
    · votar


    poo ninguem!!!

    Midgard
    Veterano
    # jan/07
    · votar


    po mais isso eh treino cara :) ou eu nom entendi sua duvida :(

    Kirk_Hammett
    Veterano
    # jan/07
    · votar


    Eu faria os tappings de maneira completamente diferente, descubra uma maneira mais confortável para você

    Ch4p0L1N
    Veterano
    # jan/07
    · votar


    pensei q essa musica era do whitesnake

    Homem Cueca
    Veterano
    # jan/07
    · votar


    rag_cp
    pelo que eu entendi voce vai inverter as maos...voce vai usar o braço direito pra segurar os taps...e o hammer on e pull off voce vai fazer normal...

    Rei Arthur Pendragon
    Veterano
    # jan/07
    · votar


    Homem Cueca
    acho q a posição do tap q ele colocou ali ta errada.... ele bate o tap nas mais agudas mesmo

    rag_cp
    Veterano
    # jan/07
    · votar


    valeuuuu

      Enviar sua resposta para este assunto
              Tablatura   
      Responder tópico na versão original
       

      Tópicos relacionados a duvida fodsss = musica Judgement day (angra)