Guitar pro 4 - preciso de ajuda

    Autor Mensagem
    Caio Lampoglia
    Veterano
    # jul/06


    opa e ae galera do cifra club ...
    entaum acabei d instala o guitar pro 4 aki.. e ja tava tentando tira umas musicas...

    tava tudu certo e pah.. curti pra caramba
    mas na hora do acorde o som eh totalmente outro...
    exemplo : na hotel california a primeira nota da introducao ta

    e--0----------------------------------------------------
    B--1----------------------------------------------------
    G--2----------------------------------------------------
    D--2----------------------------------------------------
    A--0----------------------------------------------------
    E--0---------------------------------------------------
    sendo q o primeiro acorde eh um Bm

    e na wonderwall do oasis ta

    e--3----------------------------------------------------
    B--3----------------------------------------------------
    G--0----------------------------------------------------
    D--2----------------------------------------------------
    A--2----------------------------------------------------
    E--0----------------------------------------------------

    no violao o som eh otro ... alguem pode me ajuda ? vlws

    pedrovai
    Veterano
    # jul/06
    · votar


    Não entendi muito bem... Talvez o tom do arquivo do Guitar Pro seja outro, sei lá.

    Patrick GD
    Veterano
    # jul/06
    · votar


    Caio Lampoglia
    Tem que ver se teu violão não está afinado diferente. Afine ele pelo Guitar Pro, ou se o guitar pro não está afinado diferente, pois você pode trocar a afinação da guitarra nele..

    laerguitar
    Veterano
    # jul/06
    · votar


    na hotel california, ta parecenu q a musika ta um tom abaixo.

    essa nota ai eh um Am.

    laerguitar
    Veterano
    # jul/06
    · votar


    ahh, o guitar pro tem varias afinação diferente, tem q v em qual q ta e v c o seu violao ta igual.

    flw!!!

    Benevides000
    Veterano
    # jul/06
    · votar


    ta em otro tom

    Penta_Blues
    Moderador
    # jul/06
    · votar


    Boa tarde!!!

    Caio Lampoglia
    Verifique se na música Hotel California, ao lado da tablatura, existe um traço vertical vermelho. Se existir isso significa que vc tem que colocar um capotraste pra tocar, daí fica correta a representação do Bm que está lá...
    Valeu!!!

    Caio Lampoglia
    Veterano
    # jul/06
    · votar


    Penta_Blues
    eh tem um capo traste nos acordes... mas o estranho eh q tem varias tabs da hotel california no guitar pro e todos taum assim... n tem nenhum com Bm mesmo...
    ai eu tento tira o dedilhado pelo guitar pro ai complica.. a casa seria otra .. contando a partir do capo traste ...

    mas em otras musicas como a wonderwall n tem capotraste e o som n bate com a tab...

    meu violao ta com a afinacao normal ( E ) onde q eu vejo a afinacao da musica no guitar pro ??

    vlws pela ajuda

    Halludryehl
    Veterano
    # jul/06
    · votar


    eh q nao foi feito pra vc tocar sem o capotraste ;P

    _li3feson_
    Veterano
    # jul/06
    · votar


    e--0----------------------------------------------------
    B--1----------------------------------------------------
    G--2----------------------------------------------------
    D--2----------------------------------------------------
    A--0----------------------------------------------------
    E--0---------------------------------------------------


    logico que o som é otro.....isso ae é um Am, tah um tom abaixo... lembra que nem todos os arquivos do GP taum certos.....

    Penta_Blues
    Moderador
    # jul/06
    · votar


    Boa tarde!!!

    Caio Lampoglia
    Quando a afinação não é a padrão, a indicação aparece no canto superior esquerdo da Tab, logo abaixo do título da música.

    _li3feson_
    Se o capotraste estiver na casa 2, o acorde que vc indicou se torna sim um Bm, pois a casa 0 será a casa dois por causa da colocação do capotraste.
    Quanto a algumas Tab erradas, concordo contigo e digo mais, não são poucas...

    Valeu!!!

      Enviar sua resposta para este assunto
              Tablatura   
      Responder tópico na versão original
       

      Tópicos relacionados a Guitar pro 4 - preciso de ajuda