Lick de guitarra

    Autor Mensagem
    mercenary
    # nov/02


    ae, todo mundo sabe q os solos de guitarra(principalmente metal e jazz) tem uns licks iniciais e de finalização que sao usados como "truques" da manga de qualquer guitarrista,
    gostaria de saber alguns e compartilhar conosco, ja que a guitarra nos une e nos separa matrimonialmente(HAUahuAHU)

    matheno
    Veterano
    # ago/07
    · votar


    gostei desse topico e axei interessante .
    Tmb queria saber, por isso 5 anos depois estou revivendo o topico !!!
    Eu ia criar um topico assim mas achei melhor reviver este.
    \../
    seria legal exclarecer licks iniciantes, intermediarios e dificeis..

    matheno
    Veterano
    # ago/07
    · votar


    up

    Machine Gun Man
    Veterano
    # ago/07
    · votar


    Nossa! Que upada mais tru!

    LeandroP
    Moderador
    # ago/07
    · votar



    e------------------------4--3--------
    B------------------------1--0--------
    G------------------------3--2--------
    D-----5-----5-----5------4--3--------
    A---2---2-3---3-4---4-5--------------
    E------------------------------------

    Um "turnaround" que costumo usar. Está em G

    Fecha com Ab7(9), G7(9)


    brasil telecom
    Veterano
    # out/07
    · votar


    LeandroPanucci


    esse é bacana!!!

    brasil telecom
    Veterano
    # out/07
    · votar


    LeandroPanucci


    esse é bacana

    marcio_zav
    Veterano
    # out/07
    · votar


    matheno
    gostei desse topico e axei interessante .


    aheuhaeuhaue

    Upo um topico cheio de conteudo.....hahaha

    Quico
    Veterano
    # out/07
    · votar



    e---25---25---25-----25-----------------
    B---------------------------------------
    G---------------------------------------
    D---------------------------------------
    A------------------1----2--3~~----------
    E-1----2----3----4----------------------

    gosto desse
    tah em F (Dm)

    gege_correa
    Veterano
    # out/07
    · votar


    Quico

    Nossa, que engraçado... Mas o "qui co" tenho a ver com isso?

    BaNdAiD
    Veterano
    # out/07
    · votar


    na penta, esse é classico, bem pearl jam mesmo!!

    Ex.: penta menor de E

    E--------------------------------------------------------------------- ----------------
    B--------------------------------------------------------------------- ----------------
    G-------------------------------------------12------------------------ ---------------
    D---------------------12-------12--14b-------14b16b14--12-------12---- -----
    A-----------12--14-------14---------------------------------------14-- -----14~-
    E-12--15-------------------------------------------------------------- --------------

    Tem umas variações mais curtas tb!!!
    A ultima nota soa junto com o fim da musica...
    ouça alive, do pearl jam, q dá p ter uma ideia...

    zaqueu_grunge
    Veterano
    # out/07
    · votar


    Quico
    Achei que fosse em Si Fumol

    Slowhand-
    Veterano
    # out/07
    · votar


    Tem um clichê muito usado em blues que é tocar


    e---5-5-5---4-4-4---3-3-3---2-2-2------0---------------
    B------------------------------------------------------
    G------------------------------------------------------
    D---5-------5-------5-------5----------5---------------
    A------------------------------------------------------
    E------------------------------------------------------


    E daí fechar em E7, que vai ser a entrada pra um blues em A (A7).

    Não sei se deu pra entender, é que não sei muito bem tablatura e não tenho como passar de outar forma...

    gege_correa
    Veterano
    # out/07
    · votar


    Quico
    E eu olhei achei que fosse mi encima de si sem ...

    Theeuz2010
    Veterano
    # jul/11
    · votar


    REVIVENDO UM TOPICO Q TEM 9 ANOS! gostei mto da ideia , coopera ae ? SHAUHSUA

    e------------------------------------------------------
    B------------------------------------------------------
    G------------------------------------------------------
    D-----2-3------2-3----2h3------------------------------
    A---3------33------------------------------------------
    E------------------------------------------------------

    eu inventei em momentos de briza

    zodiaco10001
    Membro Novato
    # ago/17
    · votar


    Gente um guitarrista usa seus licks para improvisar e compor musicas emcima delas fazendo parte de seu solo? Porquê eu vejo lugares q vende livros de licks, na jamtrackcentral tem q pagar tbm, ate no youtube a gente encontra, pode um guitarrista usar essas idéias q eles disponibilizam para criar um proprio solo na musica autoral??

    daimon blackfire
    Membro Novato
    # ago/17
    · votar


    Pq só guitarra tem essa história de lick? EU nunca ouvi falar em licks de flauta doce, por exemplo.

    LeandroP
    Moderador
    # ago/17
    · votar


    daimon blackfire

    Porque no mundo da guitarra, a gente pega um clichê melódico e chama de lick. Já os caras da flauta eu não sei.

    makumbator
    Veterano
    # ago/17
    · votar


    LeandroP

    Em geral chamam de frase mesmo. E tem bem menos em outros instrumentos essa tara por frases prontas que são usadas meio que de maneira automática.

    Por outro lado, no jazz se fala de licks em vários instrumentos (inclusive nos de sopro). Tem até aquele famoso e que virou piada no meio musical:

    https://m.youtube.com/watch?v=krDxhnaKD7Q

    LeandroP
    Moderador
    # ago/17
    · votar


    makumbator

    kkkkkkkkk rachei com o vídeo
    acho que a malandragem é saber o momento certo de inserir um lick ou frase dessa, dentro da tonalidade.

      Enviar sua resposta para este assunto
              Tablatura   
      Responder tópico na versão original
       

      Tópicos relacionados a Lick de guitarra