EXECUTEM ESSA TABLATURA (prometo q não vão se arre

Autor Mensagem
METALLICO
Veterano
# ago/03


e:--1-0----------------0----------------------------------0---|
B:------1----------0-1---3-1-0----3-0-------------0-3-1-0-----|
G:--------2--2---2--------------------2-1--1--1-2-------------|
D:------------------------------------------------------------|
A:------------------------------------------------------------|
E:------------------------------------------------------------|

Sabretooth
Veterano
# ago/03
· votar


nossa q porra!!
custei mas descobri o q é!!
q booosta!!!

Vic Wolk
Veterano
# ago/03
· votar


Ainda to custando...

Sabretooth
Veterano
# ago/03
· votar


hehe
vou ver se alguem fala antes de mim pra ter certeza de q descobri certo...

Grow
Veterano
# ago/03
· votar


é uma bosta, mas é o hino mais bonito(e olha q eu sou são paulino) do flu e do fla tb detonam

Sabretooth
Veterano
# ago/03
· votar


hehe
então era o hino do ... mesmo né...
q paia...num vo falar pra dexar a galera curiosa e ter q tocar tb hehe

FiSH
Veterano
# ago/03
· votar


que merda de time...

LOOOOOCCCOOOO LOCO LOCO LOCO LOCOOOO INDEPENDENTE!!!!

_________________
| S. P. F .C |
|_________________|
\ | | /
\ | | /
\ | | /
\ | | /
\| |/
\ /
\ /
\ /

FiSH
Veterano
# ago/03
· votar


_________________
| S. P. F .C |
|_________________|
.\... |... |.... /
..\.. |... |.. /
...\..|... |../
....\.|... |./
.....\|... |/
......\.../
.......\./

FiSH
Veterano
# ago/03
· votar


AH.. VALEW A INTENÇÃO...

John Andrade
Veterano
# ago/03
· votar


ó !!! uma cueca !!! hahaha
sem problemas... o distintivo do meu time parece um maiô de velha gorda ( Santoooos !!!)

FiSH
Veterano
# ago/03
· votar


uhauhauhahuahuahu

Grow
Veterano
# ago/03
· votar



_________________
| S. P. F .C |
|_________________|
.\... |... |.... /
..\.. |... |.. /
...\..|... |../
....\.|... |./
.....\|... |/
......\.../
.......\./


FiSH
Veterano
# ago/03
· votar


aeee.. agora sim..

John Andrade
Veterano
# ago/03
· votar


com a letra O, você pode fazer o umbigo em cima... ficaria mais legal com uma @, se ela fosse menor...

John Andrade
Veterano
# ago/03
· votar


agora depois de postado que eu vi... a @ fica boa

METALLICO
Veterano
# ago/03
· votar


HAHAHA!!!! TIMÃO EÔÔÔ TIMÃO EÔÔÔ^!!!!!!!!!!!!!
Só dá SÃO PAULINO NESSA PORRA????????

METALLICO
Veterano
# ago/03
· votar


HEHE!!! vcs são engraçados! o distintivo do meu time parece um...relógio antigo(despertador)...

André Gomez
Veterano
# ago/03 · Editado por: André Gomez
· votar


Rox bagarai. Corinthians é minha paixão.

o METALLICO , manda a tab da cornetinha no começo do hino. Parana nam para na...o campeão dos campeõesss, eternamente dentro dos nosso coraçõesssssss......

Cassio
Veterano
# ago/03
· votar


O São Paulo é Bi-Campeão Mundial
Contra fatos não há argumentos!!

NeGrEsCo
Veterano
# ago/03
· votar


Corinthians eh melhor e naum se discute =D

The Hellraiser
Veterano
# ago/03
· votar


Uma bosta essa tablatura!!!... hauehuaea...

tommy_iommi
Veterano
# ago/03
· votar


Naum posso pq to sem uma corda.... as merda de loja naum vende corda avulsa!

Grow
Veterano
# ago/03
· votar



Melodia

E||------------------|------------------|----------0-2---0-------|
B||------------------|------------------|---3--------------3--0--|
G||------------------|------------------|------------------------|
D||------------------|------------------|------------------------|
A||------------------|------------------|------------------------|
E||------------------|------------------|------------------------|



---------------------|-------------0--0-------|---------------------|
---------------------|---3------3--------0--0-|---3--------2--------|
---2--------2------2-|------------------------|---------------------|
---------------------|------------------------|---------------------|
---------------------|------------------------|---------------------|
---------------------|------------------------|---------------------|



-------------0-----------|----------------------|--------------------- ----|
--2-------3-----3--2--3--|---2--------0---------|---0------0--0---2-3- -2--|
-------------------------|----------------------|--------------------- ----|
-------------------------|----------------------|--------------------- ----|
-------------------------|----------------------|--------------------- ----|
-------------------------|----------------------|--------------------- ----|



----------------------|-----------------2--2---|---2--------0----2--2- -|
---0------------------|------------0-----------|---------------------- -|
------------2---------|---2--------------------|---------------------- -|
----------------------|------------------------|---------------------- -|
----------------------|------------------------|---------------------- -|
----------------------|------------------------|---------------------- -|



---0------2--4----0-----|---5--------5--------|-------5-----3----2---- -|
------------------------|---------------------|----------------------- -|
------------------------|---------------------|----------------------- -|
------------------------|---------------------|----------------------- -|
------------------------|---------------------|----------------------- -|
------------------------|---------------------|----------------------- -|



---0-----5--0-----5--0--|------------------------|-------------------- --|
------------------------|-------2--2--2----0-----|-------------------- --|
------------------------|------------------------|----2--------2------ --|
------------------------|------------------------|-------------------- --|
------------------------|------------------------|-------------------- --|
------------------------|------------------------|-------------------- --|



-------2----3----2-----|---0--------5--------|--------0----5----0----- |
-----------------------|---------------------|------------------------ |
-----------------------|---------------------|------------------------ |
-----------------------|---------------------|------------------------ |
-----------------------|---------------------|------------------------ |
-----------------------|---------------------|------------------------ |



---5--------5--------|--------5-----3----2-----|---0-----5--0------5-- 0--|
---------------------|-------------------------|---------------------- ---|
---------------------|-------------------------|---------------------- ---|
---------------------|-------------------------|---------------------- ---|
---------------------|-------------------------|---------------------- ---|
---------------------|-------------------------|---------------------- ---|



------------------------|----------------------|--------2----3----2--- --|
-------2--2--2----0-----|----------------------|---------------------- --|
------------------------|----2--------2--------|---------------------- --|
------------------------|----------------------|---------------------- --|
------------------------|----------------------|---------------------- --|
------------------------|----------------------|---------------------- --|



---0--------5--------|--------0----5----5----|---------------------|
---------------------|-----------------------|----3----------------|
---------------------|-----------------------|------------------2--|
---------------------|-----------------------|---------------------|
---------------------|-----------------------|---------------------|
---------------------|-----------------------|---------------------|



---------------------|-----------0-2---0-------|---------------------- |
---3-----------------|---3---------------3--0--|---------------------- |
---------------------|-------------------------|---2--------2------2-- |
---------------------|-------------------------|---------------------- |
---------------------|-------------------------|---------------------- |
---------------------|-------------------------|---------------------- |



--------------0--0---------|----------------------|-------------0----- --------|
----3------3---------0--0--|---3--------2---------|---2-------3----3-- -2--3---|
---------------------------|----------------------|------------------- --------|
---------------------------|----------------------|------------------- --------|
---------------------------|----------------------|------------------- --------|
---------------------------|----------------------|------------------- --------|



---------------------|--------------------------|--------------------- |
---2--------0--------|---0------0--0--2--3--2---|---0----------------- |
---------------------|--------------------------|------------2-------- |
---------------------|--------------------------|--------------------- |
---------------------|--------------------------|--------------------- |
---------------------|--------------------------|--------------------- |



-----------------2--2--|---2--------0----2--2---|---0------2--4----0-- ----|
------------0----------|------------------------|--------------------- ----|
---2-------------------|------------------------|--------------------- ----|
-----------------------|------------------------|--------------------- ----|
-----------------------|------------------------|--------------------- ----|
-----------------------|------------------------|--------------------- ----|



---5--------5---------|-------5-----3----2----|---0----5--0------5--0- --|
----------------------|-----------------------|----------------------- --|
----------------------|-----------------------|----------------------- --|
----------------------|-----------------------|----------------------- --|
----------------------|-----------------------|----------------------- --|
----------------------|-----------------------|----------------------- --|



----------------------|----------------------|-------2----3----2----0- -|
------2--2--2----0----|----------------------|------------------------ -|
----------------------|---2--------2---------|------------------------ -|
----------------------|----------------------|------------------------ -|
----------------------|----------------------|------------------------ -|
----------------------|----------------------|------------------------ -|



-----------5---------|-------------5-----------|---5--------5--------- |
---------------------|--------5---------5------|---------------------- |
---------------------|-------------------------|---------------------- |
---------------------|-------------------------|---------------------- |
---------------------|-------------------------|---------------------- |
---------------------|-------------------------|---------------------- |



-------5-----3----2----|---0----5---0------5-0---|-------------------- ---|
-----------------------|-------------------------|-------2--2--2----0- ---|
-----------------------|-------------------------|-------------------- ---|
-----------------------|-------------------------|-------------------- ---|
-----------------------|-------------------------|-------------------- ---|
-----------------------|-------------------------|-------------------- ---|



----------------------|--------2----3----2----0--|-----------5-------- -|
----------------------|--------------------------|-------------------- -|
---2--------2---------|--------------------------|-------------------- -|
----------------------|--------------------------|-------------------- -|
----------------------|--------------------------|-------------------- -|
----------------------|--------------------------|-------------------- -|



-------------5----5-----|-----------------------|------------------|----||
-------5----------------|----3---------------3--|------------------|----||
------------------------|------------------2----|------------------|----||
------------------------|-----------------------|------------------|----||
------------------------|-----------------------|------------------|----||
------------------------|-----------------------|------------------|----||




METALLICO
Veterano
# ago/03
· votar


QUE PORRA DE MELODIA É ESSA???????????? num entendi nada...

Grow
Veterano
# ago/03
· votar


METALLICO
começa assim:> salve o tricolor paulista....

toca pra tu ver

Ata guitarhero
Veterano
# ago/03
· votar


cara..... quem tá precisando de salvação agora é o tricolor gaúcho

Gui
Veterano
# ago/03
· votar


ainda bem q meu time é segundo no brasileirão...
santoos santoos santoooos...

Zakk Wylde_BLS
Veterano
# ago/03
· votar


Grow
Boa véi!!Mandou bem loko...
"...entre os grandes,és o primeeeeeiiiirooooo..."

METALLICO
Veterano
# ago/03
· votar


QUE LIXO...sinceramente uma poracaria...GAVIÕES!!!!!!!!!

METALLICO
Veterano
# ago/03
· votar


Que droga...só dá São Paulino nessa jossa???

Enviar sua resposta para este assunto
        Tablatura   
Responder tópico na versão original
 

Tópicos relacionados a EXECUTEM ESSA TABLATURA (prometo q não vão se arre