Qual o nome dessa Técnica???

    Autor Mensagem
    FiSH
    Veterano
    # jan/06


    Olá pessoal,

    Esses dias atrás eu vi uma banda cover de Hammer Fall tocar, e tinha uma musica com um riff que me despertou vontade de aprender.

    Basicamente fica se alternando entre uma nota que é a tônica do acorde e as outras notas do riff.. a nota da tônica fica abafada e as outras não... ele sendo executado rapido da um efeito que parece que tem uma guitarra abafando a base e uma outra "riffando"...

    Exemplo:
    e|----------------------------------------------------------------|
    b|--------------5-------------------------------------------------|
    g|-6---2--1----------2-----6---2---2---4---6-----1---2-----4---2--|
    D|---4---4--4-4----4---4-4---4---2---2---2---2-2---2---2-2---2----|
    A|----------------------------------------------------------------|
    E|----------------------------------------------------------------|

    Nesse exemplo no caso se abafa as notas da corda RÉ.. e as outras são soltas. As palhetadas são na corda RÉ Palhetada pra Baixo e nas outras Palhetada pra Cima, tipo que palhetada alternada só que usando 2 cordas.

    Eu não sei se isso é um pedal point, mas eu ja procurei em varios exercicios de pedal point e não achei nada parecido.

    Se alguem ai poder me ajudar me desvendando o nome desta técnica ou me passando algum exercicio pra mim aprimorar... pq eu consigo executar mão com pouca velocidade.

    Se algem ai souber o nome de mais algumas musicas de qualquer banda que seja, que use essa técnica, me diga por favor.

    Obrigado =)

    Fritz_mkvl
    Veterano
    # jan/06
    · votar


    Acho que é pedal point.

    FiSH
    Veterano
    # jan/06
    · votar


    É que não achei nenhum exercicio ainda de pedal point que seja nessas caracteristicas de palhetada e tal!! =/

    Kirk_Hammett
    Veterano
    # jan/06
    · votar


    pedal point

    kbza
    Veterano
    # jan/06
    · votar


    o que eh pedal point?

    Homem Cueca
    Veterano
    # jan/06
    · votar


    Pedal Point

    JB_
    Veterano
    # jan/06 · Editado por: JB_
    · votar


    kbza
    eh uma nota pedal, q ela sempre eh a mesma e as outras notas tocadas mudam, no caso dessa tab o pedal point eh o 4 na ré e depois o 2.

    e--13--12--13--10--13--8--13-----
    B----------------------------12---


    nesse exemplo é o 13

    kbza
    Veterano
    # jan/06
    · votar


    --4h0-0-5h0-0-7h0-0-9h0-0-7h0-9h0-|
    ----------------------------------|
    ----------------------------------|
    ----------------------------------|
    ----------------------------------|
    ----------------------------------|

    --10h0-9h0-10h0-12h0-14h0-12h0-14h0-16h0-|
    -----------------------------------------|
    -----------------------------------------|
    -----------------------------------------|
    -----------------------------------------|
    -----------------------------------------|

    --17h0-0-16h0-0-17h0-0-16h0-0-17h0-19h0-|--21h0-19h0-21h0-22-0-22b---- ---|
    ----------------------------------------|----------------------------- ---|
    ----------------------------------------|----------------------------- ---|
    ----------------------------------------|----------------------------- ---|
    ----------------------------------------|----------------------------- ---|
    ----------------------------------------|----------------------------- ---|

    nessa tab por exemplo o pedal point eh o 0, no caso a corda solta, eh isso?

    JB_
    Veterano
    # jan/06
    · votar


    kbza
    sim

    marcio_zav
    Veterano
    # jan/06
    · votar



    E||--19--20--17--20--15--20------20------20------20--||
    B||--------------------------19------17------16------||
    G||--------------------------------------------------||
    D||--------------------------------------------------||
    A||--------------------------------------------------||
    E||--------------------------------------------------||

    Malmsteen total!!!

    Tiago Metal
    Veterano
    # jan/06
    · votar


    pedal point rules

    pagode nem morto
    Veterano
    # jan/06
    · votar


    Tipo a música Painkiller (Judas Priest).

    Fritz_mkvl
    Veterano
    # jan/06
    · votar


    Pedal point com cordas soltas é o que pega.

    Skider
    Veterano
    # jan/06
    · votar


    Pedal Point (99999)

    Renato Dell
    Veterano
    # jan/06
    · votar


    Nightwish usa muito nota pedal... vide o riffzinho de Over The Hills And Far Away e a Wishmaster

      Enviar sua resposta para este assunto
              Tablatura   
      Responder tópico na versão original
       

      Tópicos relacionados a Qual o nome dessa Técnica???