por favor exercicios!!!

    Autor Mensagem
    Eclético_W
    Veterano
    # nov/05


    Se alguem sober exercicios para melhorar a agilidade ou outras tecnicas por favor mandem!!!

    João Gamba
    Veterano
    # nov/05
    · votar



    e----22-----22-------22-------22------22----------22---
    B------------------------------------------------------
    G------------------------------------------------------
    D------------------------------------------------------
    A------------------------------------------------------
    E-1------1-------1--------1--------1--------1----------


    João Gamba
    Veterano
    # nov/05
    · votar


    teu brasso vai fica rapidinhu ahuahua :P

    João Gamba
    Veterano
    # nov/05
    · votar



    e--5-4-3-2-1-----------------------------------------------
    B------------5-4-3-2-1-------------------------------------
    G----------------------5-4-3-2-1---------------------------
    D--------------------------------5-4-3-2-1-----------------
    A------------------------------------------5-4-3-2-1-------
    E----------------------------------------------------5-4321


    vai e volta assim ;P

    marcio_zav
    Veterano
    # nov/05
    · votar


    Sweep!!!

    E||---17-13-------------------------12-15-13-10----------------------- -9-12-|
    B||---------15-------------------13-------------11------------------10 ------|
    G||*-----------14-------------12-------------------10-------------9--- ------|
    D||*--------------15-------14-------------------------12-------11----- ------|
    A||------------------17-15-------------------------------13-12-------- ------|
    E||------------------------------------------------------------------- ------|



    --13-10-------------------------12-15-17-13----------------------------13--||
    --------11-------------------13-------------15----------------------15-----||
    -----------10-------------12-------------------14----------------14-------*||
    --------------12-------14-------------------------15----------15----------*||
    -----------------13-15-------------------------------17-12-17--------------||
    ---------------------------------------------------------------------------||


    Zakky Morgan
    Veterano
    # nov/05
    · votar


    Ex:1 - Palhetada Alternada

    e------------------------------------------------------
    B------------------------------------------------------
    G------------------------------------------------------
    D------------------------------------------------------
    A-----------1-------1-2-----1-2-3---1-2-3-4------------
    E---1-2-3-4---2-3-4-----3-4-------4--------------------

    Faça esse exercício(1)até a última corda e volte!!!!

    Ex:2 - Salto de Cordas e Palhetada Alternada!!!!
    e---------------------------------------------------
    B---------------------------------------------------
    G-------------------------------------------1-2-3-4-
    D---------------------------1-2-3-4-----------------
    A-----------1-2-3-4---------------------------------
    E---1-2-3-4---------1-2-3-4---------1-2-3-4---------

    e--------------------------1-2-3-4---------------------
    B----------1-2-3-4-------------------------------------
    G------------------------------------------------------
    D------------------------------------------------------
    A------------------------------------------------------
    E--1-2-3-4---------1-2-3-4-----------------------------

    Ex:3 - Palhetada Alternada
    ^ * ^ * ^ * ^ * ^ * ^ * ^ * ^ * ^ *
    e-12-------10-------8------6------4------2--------------
    B----13-------11------9------7------5------3------------
    G-------14-------12-----10-----8------6------4----------
    D--------------------------------------------------------
    A--------------------------------------------------------
    E--------------------------------------------------------

    BOA SORTE E TREINE MTO!!!!!!!!!!!!

    Zakky Morgan
    Veterano
    # nov/05
    · votar


    As tabs sairam meu juntas, mas dá pra entender!!!!!!!!!!!

    Fernando Favareto
    Veterano
    # nov/05
    · votar


    e----22-----22-------22-------22------22----------22---
    B------------------------------------------------------
    G------------------------------------------------------
    D------------------------------------------------------
    A------------------------------------------------------
    E-1------1-------1--------1--------1--------1----------



    hahauhuahuahuhauauhuahuahuhauhauhauhauhuahaha

      Enviar sua resposta para este assunto
              Tablatura   
      Responder tópico na versão original
       

      Tópicos relacionados a por favor exercicios!!!