D'yer Maker! Alguém pode dar uma conferida??

    Autor Mensagem
    Ps1c0
    # nov/02


    ae!!eu tentei tirar o solo pq to afim de mandar para o cifraclub!!mas antes gostariam q vcs tocassem e vejam c naum tem nada pra corrigir ou coisa assim!tah aih:

    Chord legend:
    

    Am : [577555]
    G : [355433]

    [Riff 1]
    C Am F G
    e:------------10s12--|-----------7s8---|----------3s5--|---------5s7-|
    B:-------8-----------|------5----------|-----1---------|-----3-------|
    G:-----9---9---------|----5---5--------|---2---2-------|---4---4-----|
    D:--10---------------|--7--------------|-3-------------|-5-----------|
    A:-------------------|-----------------|---------------|-------------|
    E:-------------------|-----------------|---------------|-------------|

    [Riff 2]
    C Am
    e:-----------0---0----------0---0-----------------------|
    B:-----------1---1----------1---1-------------1---------|
    G:--------0------------0h2--------------0h2------0------|
    D:---0h2------------------------------------------------|
    A:------------------------------------------------------|
    E:------------------------------------------------------|

    [Riff 3]
    Am G
    e:-5-5--5-5---5-5--5-5-5-5-5-----3-3--3-3--3-3--3-3-3-3-3------------|
    B:-5-5--5-5---5-5--5-5-5-5-5-----3-3--3-3--3-3--3-3-3-3-3------------|
    G:-5-5--5-5---5-5--5-5-5-5-5-----4-4--4-4--4-4--4-4-4-4-4------------|
    D:-7-7--7-7---7-7--7-7-7-7-7-----5-5--5-5--5-5--5-5-5-5-5------------|
    A:-7-7--7-7---7-7--7-7-7-7-7-----5-5--5-5--5-5--5-5-5-5-5------------|
    E:-5-5--5-5---5-5--5-5-5-5-5-----3-3--3-3--3-3--3-3-3-3-3------------|

    [Riff 4]
    F G
    e:----------------------------------------|--------------------------|
    B:-----1------1------1------1------1------|--3-------3------------3--|
    G:-------2------2------2------2------2----|----4---4---4---4----0----|
    D:--3------3------3------3------3------3--|------5-------5----3------|
    A:----------------------------------------|--------------------------|
    E:----------------------------------------|--------------------------|

    e:-------------------------|
    B:-------------------------|
    G:-------0---0-------------|
    D:--2~-----0---------------|
    A:-------------------------|
    E:-------------------------|


    Ps1c0
    # nov/02


    essa mesma eu mandei para um site americano!!!mas pra mandar pro cifra eu gostaria q alguém conferisse!!

    vlw!!

      Enviar sua resposta para este assunto
              Tablatura   
      Responder tópico na versão original
       

      Tópicos relacionados a D'yer Maker! Alguém pode dar uma conferida??