Dúvida: Escalas

    Autor Mensagem
    viola
    Veterano
    # jul/03 · Editado por: Moderador


    Quais escalas que vcs mais usam para solar?Qual escalas são melhores para cada estilo?Além daquelas escalas do guitar pro,qual mais que vcs conhecem???
    É que estou começando a aprender as escalas,e to achando da hora,estou conseguindo tirar uns solinhos,sei que parace ridículo, mais eu tô curtindo muito

    Errol
    Veterano
    # jul/03
    · votar


    Não existe esse lance de escala melhor para tal estilo, existem aquelas mais utilizadas, mas você pode pegar qualquer escala e fazer um solo de qualquer estilo dependendo da sua experiencia e pegada.

    Eu uso mais a escala pentatônica para solar, são 5 desenhos e vario entre eles descansando nas tônicas, terças e quintas da escala.

    Aki vai a lista de escalas que eu já prendi, todas estão em DÓ:

    Escala de DÓ Maior pela 5ª Corda:
    
    |-------------------------6-7-8-|
    |--------------/----5-6-7-------|
    |-----------2-4-5-7-------------|
    |-----2-3-5---------------------|
    |-3-5---------------------------|
    |-------------------------------|

    Escala de DÓ Maior pela 6ª Corda:
    |--------------------------------7-8-|
    |---------------------------8-10-----|
    |--------------------7-9-10----------|
    |-------------7-9-10-----------------|
    |------7-8-10------------------------|
    |-8-10-------------------------------|

    Pentatônica 1, Inicia em DÓ:
    |------------------------------8-10-|
    |-------------------------8-10------|
    |-------------------7-8-9-----------|
    |--------------7-10-----------------|
    |---------7-10----------------------|
    |-8-10-11---------------------------|

    Pentatônica 2, inicia em RÉ:
    |------------------------------------10-11-12-|
    |------------------------------10-13----------|
    |-------------------------9-12----------------|
    |----------------10-12-13---------------------|
    |----------10-12------------------------------|
    |-10-11-12------------------------------------|

    Pentatônica 3, inicia em MI:
    |-------------------------------------12-15-|
    |----------------------------13-15-16-------|
    |----------------------12-14----------------|
    |-------------12-13-14----------------------|
    |-------12-15-------------------------------|
    |-12-15-------------------------------------|

    Pentatônica 5, inicia em SOL:
    |-------------------------3-5-|
    |-------------------3-4-5-----|
    |---------------2-5-----------|
    |-----------2-5---------------|
    |-----3-5-6-------------------|
    |-3-5-------------------------|

    Pentatônica 6, inicia em LÁ:
    |-------------------------5-8-|
    |---------------------5-8-----|
    |---------------5-7-8---------|
    |-----------5-7---------------|
    |-----5-6-7-------------------|
    |-5-8-------------------------|

    Escala Menor Primitiva
    |-----------------------------5-7-8-|
    |-----------------------5-6-8-------|
    |-----------------4-5-7-------------|
    |-------------5-7-------------------|
    |-------5-7-8-----------------------|
    |-5-7-8-----------------------------|

    Escala Menor Harmônica:
    |---------------------------4-5-|
    |-----------------------5-6-----|
    |-----------------4-5-7---------|
    |-------------6-7---------------|
    |-------5-7-8-------------------|
    |-5-7-8-------------------------|

    Escala Menor Melódica:
    |---------------------------4-5-|
    |-----------------------5-7-----|
    |-----------------4-5-7---------|
    |-----------4-6-7---------------|
    |-------5-7---------------------|
    |-5-7-8-------------------------|

    Escala Menor Primitiva (5ª Corda):
    |----------------------------------12-13-15-|
    |-------------------------12-13-15----------|
    |-------------------12-14-------------------|
    |----------12-14-15-------------------------|
    |-12-14-15----------------------------------|
    |-------------------------------------------|

    Escala Menor Harmônica (5ª Corda):
    |----------------------------------12-13-16-|
    |-------------------------12-13-15----------|
    |-------------------13-14-------------------|
    |----------12-14-15-------------------------|
    |-12-14-15----------------------------------|
    |-------------------------------------------|

    Escala Menor Melódica (5ª Corda):
    |----------------------------------12-14-16-|
    |-------------------------12-13-15----------|
    |----------------11-13-14-------------------|
    |----------12-14----------------------------|
    |-12-14-15----------------------------------|
    |-------------------------------------------|


    Keldorn
    Veterano
    # jul/03
    · votar


    CARACO !!!
    Errol é o paciente ... Sem dúvida !!

    Revolver Ocelot
    Veterano
    # jul/03
    · votar


    Tu me deu uma baita de uma ajuda cara!!
    Errol

      Enviar sua resposta para este assunto
              Tablatura   
      Responder tópico na versão original
       

      Tópicos relacionados a Dúvida: Escalas