Pra quem curte hip hop

    Autor Mensagem
    _Zu_
    Veterano
    # dez/03 · Editado por: _Zu_


    Pra quem curte...gostaria que alguém visse essa tab que tirei aqui...pra mim parece bom..mas se alguém puder me ajudar...ficaria grato

    De menos crime - Periferia invadindo o sistema

    <pre>
    G------------------------------------------------------
    D-----------------------------------------4-----------------
    A---------------------------------------3-------------------
    E-0-1-0-1-0-2-3-3-1--0-1-0-1-0-2-3---------------------
    </pre>

    Espero que tenha feito direitinho..pois nunca fiz isso antes...hehe..
    Se alguém puder revisar isso..eu agradeço

    Aquele abraço

    _Zu_
    Veterano
    # dez/03
    · votar


    Droga..os dois ultimos airam muito pra esquerda....

    pirulito
    Veterano
    # dez/03 · Editado por: pirulito
    · votar


    <pre>
    G------------------------------------------------------
    D------------------------------------4-----------------
    A----------------------------------3-------------------
    E-0-1-0-1-0-2-3-3-1--0-1-0-1-0-2-3--------------------- </pre>

    pirulito
    Veterano
    # dez/03
    · votar


    spam em cima


    G------------------------------------------------------
    D------------------------------------4-----------------
    A----------------------------------3-------------------
    E-0-1-0-1-0-2-3-3-1--0-1-0-1-0-2-3---------------------


    _Zu_
    Veterano
    # dez/03
    · votar


    Boa...vlw

      Enviar sua resposta para este assunto
              Tablatura   
      Responder tópico na versão original
       

      Tópicos relacionados a Pra quem curte hip hop