Exercícios: Slap

    Autor Mensagem
    RiBaSs
    Veterano
    # nov/03


    Alguém poderia passar uns exercicios de slap ai?

    Voodoo
    Veterano
    # nov/03
    · votar


    RiBaSs
    Yeep yeep, mas no momento ta foda aki sem muitu tempo, eu agora to almocando e tc aki no forum hauahau, daki jah vo correndo p/ academia, dpois tenho trabalho p/ fazer, mas kra, c eu posto sim os exercicios de slap q tem a revista Cover baixo, como eu prometi ali do TApping tb kra, mas kra tem exercicios de slap na coluna de Contra-baixo do Cifraclub!!!

    Voodoo
    Veterano
    # nov/03
    · votar


    Exercicio 1

    T    T     T      T      T     T    T     T
    
    G--------------------0------0----------------------------
    D-------------0-------------------0----------------------
    A-------0------------------------------0-----------------
    E--0-----------------------------------------0-----------



    T T  T T  T T  T T    T T T T T T T T
    
    G-----------------0-0----0-0-------------------------------
    D------------0-0-------------0-0---------------------------
    A-------0-0----------------------0-0-----------------------
    E--0-0-------------------------------0-0-------------------


    THumb = T : bater com o polegar nas cordas, dica, p/ q o som fike melhor, bata na ultima casa da escala!!!
    Pop, Pluck...= P : puxar as cordas com dois ou mais dedos, um som mais "estalado

    Esse Exercicio eh basico, mas muituu importante p/ quem ta comecando no slap, experiencia propria, eu antes queria jah sair tokando musikas com slaps, embolava td, por issu comecem o estudo do slap com esses exercicios, eh CHATO, EH BASICO, MAS IMPORTANTE

    Voodoo
    Veterano
    # nov/03
    · votar


    Exercicio 2

    T   P     T    P       P   T     P    T
    
    G-----------------5-------5------------------------------
    D------5----------------------------5--------------------
    A------------3----------------3--------------------------
    E--5-------------------------------------3---------------




    T   P T P P T  P  T    T  P  T P P  T  P   T
    
    G----------5-5--------------------5-5---------------------
    D------5----------5----------5------------5---------------
    A--------3-----3----------------3------3------------------
    E---3-----------------3---3-------------------3-----------


    Esse exercicio jah comeca envolver o Pluck, pop q eh o movimento de puxar as cordas com dois ou mais dedos, fazendo um som "estalado"

    Voodoo
    Veterano
    # nov/03
    · votar


    Exercicio 3

     T H  PH  T H   P H   P H  T H  P H   T H
    
    G------------------5h7---5h7-----------------------------
    D--------5h7-----------------------5h7-------------------
    A-------------5h7-------------5h7------------------------
    E---5h7----------------------------------5h7-------------


    *********************************************************

    T H P H  T H  T H   P H  T H  P H  T H
    
    G----------------5h7---5h7-------0h2------------------
    D------5h7------------------0h2-----------------------
    A-----------5h7----------------------------------------
    E--5h7---------------------------------5h7-------------


    Exercicio q envolve o Hammer-on, tokar e manter a sonoridade do dedo do indicador, como no exemplo a casa 5, e "martelar"com o outro dedo da mao esquerda, na casa 7 fazendo q saio o som, sem tokar novamente com a mao direita!!!

    pagode alto astral
    Veterano
    # nov/03
    · votar


    Opa , tá pintando o cara que vai fazer a coluna Slap no cifra club!
    VooDoo para colunista!

    Voodoo
    Veterano
    # nov/03
    · votar


    Exercicio 4

    T    P    T    P    P     T   P       T  po
    
    G-----------------7p5--7p5--------------------------------
    D-------7p5----------------------7p5----------------------
    A------------7p5-------------7p5---------3-----------------
    E--7p8---------------------------------------7-------------

    ***********************************************************


    T po P T P P T P T
    G---------------------7p5---5-------2p0------------------
    D---------7p5------------------2p0-----------------------
    A------3--------7p5-----------------------3p2------------
    E---7----------------------------------------------------


    Exercicio q envolve p Pull-off, o inverso do Hammer-on!!!

    Voodoo
    Veterano
    # nov/03
    · votar


    Exercicio 5


    T T P P P P T T T T T T T P T P T P T P T T T T
    G----------0---0-----------------------0-0--0-0------------
    D-------0---------0----------------0-0----------0-0--------
    A----0---------------0---------0-0------------------0-0----
    E-0--------------------0---0-0--------------------------0-0


    Esse exercicio dve ser feito com as notas abafadas, dead notes, detalhe eh o mesmo exercicio q o primeiro, so q alem de tokar abafado ela tem a tecnica de Thumb e Pluck ou Pop

    Voodoo
    Veterano
    # nov/03
    · votar


    Exercicio 6


    T T T P P P P T T P P T
    G----------9---7-7---9----------9--7--------------------
    D----0--2----------------0------------------------------
    A-----------------------------------------2--------------
    E--2------------------------0---------------------------





    T T P P P P T T P P T
    G---------9---7-7---9-----------9--7------------------
    D--0--2-----------------0-----------------------------
    A-----------------------------------------2-----------
    E--------------------------0--------------------------


    Pena q naum da p/ colocar partitura aki, mas issu eh um riffzinhu bem legal, tem q botar um ritimo nissu aih, peguem o video desse exercicio no site da Cover Baixo
    www.coverbaixo.com.br !!!
    Essas TABS foram retirados da Cover Baixo edicao numero 13 e as explicacoes fui eu q botei, hauahaua naum eh uma coisa muituu dificil explicar issu, eh facilll esses exercicios, mas issu ajudará muituu a tirar as musikas de slap aiii!!!

    pagode alto astralEhehehehe vc postou antes de eu botar a bibliografia kra, naum eh de minha autoria essas tabs, apenas as explicacoes hehehehhee, colunista, xiiiii kra to longe, sou um garotinhu q tem muituuuuuuu q aprender hauahauaha, mas slap eh uma das minhas tecnicas preferidas!!!

    RiBaSs
    Veterano
    # nov/03
    · votar


    Voodoo
    Velho, valeu. Vc me ajudou muito!

    Voodoo
    Veterano
    # nov/03
    · votar


    Sussu, amanha estarei postando ali uns exercicios de tapping q estou lhe dvendo, mas eh q demora um poko fikar digitando essas tabs ai eu faco amanha sussa???

    RiBaSs
    Veterano
    # nov/03
    · votar


    opa!

    Rasputin
    Veterano
    # nov/03 · Editado por: Rasputin
    · votar


    esse de slap me ajuda bem

    T P T P T P T P T
    G------------------------------------------------------
    D----5------3h5------5---------3h5--------------------------
    A---------------------------------------------------
    E-3-----3-------3---------3------------3-----------
    </pre>
    <pre>
    T P T P T P T P T
    G------------------------------------------------------
    D-------3h5---------3h5----------5-----------4h6------------
    A----------------------------------------------------
    E--3----------3-------------3----------4----------5---------
    </pre>

    <pre> T P T P T P T
    G------------------------------------------------------
    D--------5----------3h5-------------------3h5---------------A--------- --------------------------------------------
    E-----3---------3-------------3----------------------3------
    </pre>


    se estiver estranho alguem arruma ai pq eu nao sei faze tab direito...

    bom, sao esses exercicios que eu uso para aumentar velocidade, e habilidade....

    tem varios outros, soh que demora mto...

    Rasputin
    Veterano
    # nov/03
    · votar


    se alguem tive com saco, depois arrumem ai, pq eu nao sei faze direito




    reparem que a corda lah do utimo exercicio tah colocada errada,
    nao eh afinaçao diferente nao viu

    peterson22
    Veterano
    # nov/03
    · votar


    Putz 1 dia ainda chego a aprendr slapar!!!!!! Por enquanto, tnho q pgar alguma coisa disso ae, e vr o q consigo fazr!!!!!

    sapo
    Veterano
    # dez/03
    · votar


    Voodoo
    No meu Computador a explicação do que é Hammer-on ficou cortada e eu não consegui ver, então me explique o que é por favor.

    Bass Kruvianna
    Veterano
    # dez/03
    · votar


    Eu tinha uma apostila com MUUIIITTOOOS exercicios de Slap e teps... achei numa HP na net... c eu achar dnovo eu posto o link pra vcs... eh realmente bom...

    Voodoo
    Veterano
    # dez/03
    · votar


    sapoOPS SORRY AI KRA!!!
    Hammer-on seria uma especie de "martelar", tipo vamos supor ali nakele exercicio, ele esta tokando a casa 5, ai vc continua com o dedo indicador nessa casa, deixando a notar soar uma unica vez, ai vc com o dedo anelar vai "martelar" a casa 7, mas sem tokar com a mao direita!!!

    MadrugaBass
    Veterano
    # dez/03
    · votar



    G---9-----7-7h9---9-----7---7h9---9-----7-7h9--9--------7--D-----7h9-- ---------7h9---9---------7h9--------------------
    A-7-------------7---------------7------------7--7/5--5---5-E---------- ------------------------------------------------
    s p p p p s p p p p p s p p p s ps s p s


    MadrugaBass
    Veterano
    # dez/03
    · votar


    oh foi mal ai
    olha eu inventei umas frases e bem simples se vc quiser tentar blz?

    http://planeta.terra.com.br/arte/madrugabass/tabs/inv2.txt
    http://planeta.terra.com.br/arte/madrugabass/tabs/inv9.txt

    vieira guitars
    Veterano
    # jan/11
    · votar


    VOODOO PARA COLUNISTA!

    vieira guitars
    Veterano
    # jan/11
    · votar


    valeu voodoo estes metodos me ajudaram muito no slap

    teksat
    Veterano
    # out/12
    · votar


    Vlw cara , ótimos exercícios !

    marcelo deizano
    Membro Novato
    # set/15
    · votar


    Achei um site um dia desses com 3 excelentes exercícios de Slap, estou aprimorando por causa deles, fácil entendimento e exercícios bem simples.

    Slap: Parte 1

    Slap: Parte 2 Double Thumb

    Slap: Parte 3 Apoios

    Espero que gostem e ajudem vocês!

    marcelo deizano
    Membro Novato
    Esse post foi marcado como inapropriado mostrar
    O autor recebeu uma advertência por publicar conteúdo contra as regras do fórum.

    ago/17

    Tem mais este site com ótimos exercícios de slap no baixo, super didático, aprendi bastante com essas dicas valiosas

    http://treinamentointensivodecontrabaixo.com/tecnicas-de-slap-no-contr abaixo/

      Enviar sua resposta para este assunto
              Tablatura   
      Responder tópico na versão original
       

      Tópicos relacionados a Exercícios: Slap