Forró, Baião, Reggae...

    Autor Mensagem
    NELTON
    Veterano
    # ago/03


    Aí galera, alguém pode me dar ua linha básica em G deste ritmos, é que estou aprendendo agora...Obrigado

    harakiri
    Veterano
    # ago/03 · Editado por: harakiri
    · votar


    reggae:
    tenta toca pra tras (um poco depois da batida), pra faze um groove mais suingado,
    o bumbo vai caindo geralmente no 2º e 4º tempos
    a acentuaçao fica nesses tempos,
    pode até deixa o primero tempo vazio as vezes pra da um destaque maior neles

    baião:
    acompanha a levada da zabumba,
    tenta faze as quebradas junto com o bacalhau, ou o triangulo

    tenta ouvi mais dos estilos e tira as musicas
    que ja vai ajuda muito

    Gui
    Veterano
    # ago/03
    · votar


    NELTON
    reggae:
    usa-se geralmente 5º e 7º

    forró:
    geralmente triades ou tb pode usar os joguinhos d tonica 5º...

    NELTON
    Veterano
    # ago/03
    · votar


    é isso que quero que vcs me mostrem na prática, tipo tab, algo bem simples, para que eu comece a pegar...

    Gui
    Veterano
    # ago/03
    · votar


    Forró

    G Dm Am C
    G-----------------------------------
    D--------------4-7-------------2-5--
    A------2-5-5-----------4-7-3--------
    E--3---------------5----------------

    Reggae

    G D C D
    G-----------------------------------------------------
    D-----------------------------------------------------
    A-------------5-5---5--5-4-3--3---3--5-5---5----------
    E--3--3--1-3------5-------------5--------5---4-3------


    III_SlasH_III
    Veterano
    # ago/03
    · votar


    Ae, essa é de limao com meu, uma banda do ceara, o nome da musica é "telefona-me", tipo romantica, mas bem puxada. è em G tbm

    G                   D              C
    
    D------------------------4-7------4-7------2-5------2-5
    A------2-5------2-3-5--5-----5--5-----3--3-----3--3----
    E-3--3-----3--3----------------------------------------
    continua
     Bm       D
    
    D----------4------4-7------------------------------------
    A---2--2-5---5--5----------------------------------------
    E---------------------3----------------------------------


    espero que eu tenha ajudado, ja que toko violao, e manjo pauco de baixo, mas to usando um exemplo concreto

      Enviar sua resposta para este assunto
              Tablatura   
      Responder tópico na versão original
       

      Tópicos relacionados a Forró, Baião, Reggae...