Fórum Cifra Club - maior fórum de m&uacite;sica do Brasil

Quero copiar as cifras para o Word mas o formato .

Autor Mensagem
Rato
Veterano
# mai/04


Bom dia senhores

estou copiando algumas cifras para o Word , mas a formatação tira as cifras do lugar e aí eu tenho que ficar arrumando o local correto.....qual a fonte que eu posso uar para colar no Word, de forma que não precise ficar arrumando



Grato
e aos que acham que morri....não morri não

marcioazzarini
Veterano
# mai/04 · Editado por: marcioazzarini
· votar


Rato

Mude a fonte das tablaturas para Courier New. Deve estar como padrão Times. Mude pra Courier q resolve a parada.Veja o exemplo abaixo

Com fonte normal:
e----3-----3----------------5-----5--------------------
B------5-6---6-5-3------------6-8---8-6-5--------------
G------------------5----------------------7------------
D------------------------------------------------------
A-------C7M----------------------Dm7-------------------
E------------------------------------------------------

Agora a mesma TAB com a fonte Courier:

e----3-----3----------------5-----5--------------------
B------5-6---6-5-3------------6-8---8-6-5--------------
G------------------5----------------------7------------
D------------------------------------------------------
A-------C7M----------------------Dm7-------------------
E------------------------------------------------------



Abraços!
___________________
Marcio Azzarini
http://www.marciobasspage.cjb.net
http://www.polosopostos.cjb.net
http://www.basspoint.cjb.net

Enviar sua resposta para este assunto
        Tablatura   
 

Tópicos relacionados a Quero copiar as cifras para o Word mas o formato .

290.152 tópicos 7.569.162 posts
Fórum Cifra Club © 2001-2014 Studio Sol Comunicação Digital