Notificações Amigos pendentes

      Fórum Cifra Club - maior fórum de m&uacite;sica do Brasil

      Opinioes sobre uma musica

      Autor Mensagem
      KauaMoreira
      Membro Novato
      # 08/mar/18 12:22


      Bem eu não sei se é permitido aki no forum mas gostaria de saber a opinião de voces sobre uma musica que eu fiz o que tem que mudar se gostaram ou não e etc

      Musica :

      Afinação Padrão : E A D G B E

      Na parte 4 o C é em forma de pestana na casa 3


      Parte 1


      C G/B Am
      E|----------------------------------------------------
      A|--3---------3----2-----------2----0----------0------
      D|----------2--------------0----------------2---------
      G|-----0-0------------0-0--------------2-2------------
      B|-----1-1------------3-3--------------1-1------------
      E|-----0--------------3----------------0--------------


      Am/G F Dm C(7)
      E|---3-------3----1------1------------------3----------
      A|-----------------------------------------------------
      D|----------------------------0--------0---------------
      G|------0-0----------2-2----------2-2---------1-1-1-1--
      B|------1-1----------1-1----------3-3---------0-0-0-0--
      E|------0------------1------------1-----------0-0-0-0--



      Parte 2

      C G/B Am
      E|------------------------------------------------------
      A|-0-2-3------3---3----2-----2---2----0-------0---0-----
      D|--------------2--------------0----------------2-------
      G|--------0-0-------------0-0-------------2-2-----------
      B|--------1-1-------------3-3-------------1-1-----------
      E|--------0---------------3---------------0-------------


      Am/G F Dm C(7)
      E|---3-------3----1------1------------------3----------
      A|-----------------------------------------------------
      D|----------------------------0--------0---------------
      G|------0-0----------2-2----------2-2---------1-1-1-1--
      B|------1-1----------1-1----------3-3---------0-0-0-0--
      E|------0------------1------------1-----------0-0-0-0--


      Parte 3

      F G F G
      E|---3--1-----1----3-------3-----1-----1----3-------3--
      A|-----------------------------------------------------
      D|-----------------------------------------------------
      G|--------2-2---------0-0----------2-2---------0-0-----
      B|--------1-1---------0-0----------1-1---------0-0-----
      E|--------1-----------1------------1-----------1-------


      Parte Final

      C Bm Am Am/G
      E|------------------------------------3-------3--------
      A|---3------3---2------2---0------0--------------------
      D|------5-5--------4-4---------------------------------
      G|------5-5--------4-4--------2-2--------0-0-----------
      B|------5----------3----------1-1--------1-1-----------
      E|----------------------------0----------0-------------

      F G C
      E|-----1-----1----3-------3---------------------------
      A|-----------------------------3----------------------
      D|-----------------------------2----------------------
      G|-------2-2---------0-0-------0----------------------
      B|-------1-1---------0-0-------1----------------------
      E|-------1-----------1--------------------------------

      ejames
      Membro Novato
      # 08/mar/18 14:05
      · votar


      Se você quer que opinem, precisa gravar ou transcrever isso pruma partitura. Tablatura não dá notação do tempo nem ritmo.

      Cisdelli
      Veterano
      # 08/mar/18 14:22 · Editado por: Cisdelli
      · votar


      ejames
      Eu gostei muito do som... huehuehuehue

      KauaMoreira


      Cara o ejames ta certo, só na tablatura não da pra saber nada.. pode ser um puta rock mas tb pode ser pagode.
      manda um áudio ae pra gnt!

      abraço

      JJJ
      Veterano
      # 08/mar/18 16:19
      · votar


      KauaMoreira
      eu não sei se é permitido aki no forum

      Fique frio, é permitido opinar sobre a música alheia, sem problema.

      Mas com um áudio é bem mais fácil!

      KauaMoreira
      Membro Novato
      # 08/mar/18 17:01
      · votar


      Bem vou tentar mandar um vídeo tocando a musica depois mais não sei vai ajudar mais o tempo da musica é 4/4 blz vou tentar assim que possível gravar o vídeo e eu ainda não sei fazer partitura e eu também não sei se ajuda muito mas o ritmo da musica é meio lento, mas depois eu coloco um video tocando a musica aqui

      Lelo Mig
      Membro
      # 08/mar/18 18:09
      · votar


      KauaMoreira

      Cara, cada nota tem uma duração relativa ao tempo (unidade de tempo)... Exemplo, um dó, um dóooo, outro dóooooooooo...

      Mesmo que você diga que é uma balada 4x4 a 70 Bpm, uma tablatura não é suficiente para identificarmos uma música desconhecida.... Ela não possui dezenas de informações necessárias.

      A única função de uma tablatura é mostrar "onde se encontram as notas" de uma música que conhecemos.

      Precisa gravar amigo!

      Chrystian1234
      Membro Novato
      # 09/mar/18 18:59
      · votar


      A tablatura esta invertida

      LeandroP
      Moderador
      # 09/mar/18 22:57
      · votar


      Chrystian1234
      A tablatura esta invertida


      Pô, tem essa também! Isso explica o Si bemol que eu vi várias vezes :p

      Você não pode enviar mensagens, pois este tópico está fechado.
       

      Tópicos relacionados a Opinioes sobre uma musica

      305.944 tópicos 7.899.580 posts
      Fórum Cifra Club © 2001-2018 Studio Sol Comunicação Digital