Fórum Cifra Club - maior fórum de m&uacite;sica do Brasil

SOM DE CARRILHÕES

Autor Mensagem
cris Uchoas
Veterano
# set/03


Pessoal,

Estou a procura das cifras para solo da musica "SOM DE CARRILHÕES", mas tem que ser cifra porque não entendo partitura.

rmoraes
Veterano
# set/03 · Editado por: Moderador
· votar


olha, nao sei se eu posso fazer isso mas vou mandar por aki mesmo. Eu ADORO essa musica e um amigo (q le partitura) executava ela muito bem. ate q achei a tab na web! :)

boa sorte pra vc! :)

Sons de Carrilhoes                          


Author: João Pernambuco

E||-------10-----|--9--------7------|-----------------|
B||------------7-|-----7-7-----10-8-|--0--------0-2-3/|
G||----------7---|-----7-7----------|-----0-0---------|
D||--------------|------------------|-----2-2---------|
A||--------------|---------0--------|-----------------|
D||--------------|--0---------------|--2------2-------|



-------------5---|-----------------|----------------|
--7--------5---7-|--0--------------|----------------|
-----6-6---------|-----2-2---2-----|----2-----------|
-----5-5---------|-----4-4-----4---|------4---4--3--|
--0------0-------|---------------5-|--------5-------|
-----------------|--0------0-------|--0-------4--3--|



-----------------|-------------5---|-----------10-----|
-----0-0---0-2-3/|--7--------5---7-|--0-------------7-|
-----0-0---------|-----6-6---------|-----2-2------7---|
--2--------------|-----5-5---------|-----4-4----------|
-----------------|--0------0-------|---------0--------|
--2------2-------|-----------------|--0---------------|



--9--------7------|-----------------|-------------5---|
-----7-7-----10-8-|--0--------0-2-3/|--7--------5---7-|
-----7-7----------|-----0-0---------|-----6-6---------|
------------------|-----2-2---------|-----5-5---------|
---------0--------|-----------------|--0------0-------|
--0---------------|--2------2-------|-----------------|



-----------------|--------------5-7-|--5-3-0-----------|
--0--------------|----------4-7-----|--------0---------|
-----2-2---2-----|--------5---------|----------0-------|
-----4-4-----4---|----4-7-----------|------------2-----|
---------------5-|--6---------------|--------------2-1-|
--0------0-------|------------------|------------------|



----------------|-------10----||----------------|-----------8---8-|
----------0--2--|--3----7-----||---3--3-3-4--4--|--7----------7---|
----2-----0--0--|--2----7-----||*-----4-4-4--4--|-----5-5---------|
------4---2--2--|--4----------||*-----5-5-5--5--|-----7-7---------|
--0-----5----0--|-------0-----||----------------|--0--------------|
----------2-----|--0----------||---5---------5--|---------0-------|



--8--8-8-8--8--|--10-----------12-10-|--7--------------10-|
--7--7-7-5--5--|------8-8---12-------|----8---------------|
--5--5-5-5--5--|------7-7------------|------7--------7----|
--0------------|--9-------0----------|--------9----9------|
---------------|---------------------|----------10--------|
---------0-----|---------------------|--------------------|



--9-7----------0---|-------------5---|---------------|
------10-9-8-7---3-|--7--------5---7-|--5------3-----|
-------------------|-----6-6---------|-----5-5----5--|
-------------------|-----5-5---------|-----4-4----4--|
-------------------|--0------0-------|---------0-----|
-------------------|-----------------|--0------------|



---------------|-----------8---8-|--8--8-8-8--8--|
--3--3-3-4--4--|--7----------7---|--7--7-7-5--5--|
-----4-4-4--4--|-----5-5---------|--5--5-5-5--5--|
-----5-5-5--5--|-----7-7---------|--0------------|
---------------|--0--------------|---------------|
--5---------5--|---------0-------|---------0-----|



--10-----------12-10-|--------0-----------|------------------|
------8-8---12-------|--12------3---------|--------1-------4-|
------7-7------------|-----13-----0-1-----|------2-------3---|
--9-------0----------|----------------2-0-|----2-------5-----|
---------------------|--------------------|--3-------6-------|
---------------------|--------------------|------------------|



----------------|--3-----3-----||--3-----10-----|--9--------7------|
--------3-5-----|--3-----3-----||--3----------7-|-----7-7-----10-8-|
------4------5--|--4-----4----*||--4--------7---|-----7-7----------|
----5--------4--|-------------*||---------------|------------------|
--5-------0-----|-----5--------||---------------|---------0--------|
----------------|--5-----5-----||--5------------|--0---------------|



-----------------|-------------5---|-----------------|
--0--------0-2-3/|--7--------5---7-|--0--------------|
-----0-0---------|-----6-6---------|-----2-2---2-----|
-----2-2---------|-----5-5---------|-----4-4-----4---|
-----------------|--0------0-------|---------------5-|
--2------2-------|-----------------|--0------0-------|



----------------|-----------------|-------------5---|
----------------|-----0-0---0-2-3/|--7--------5---7-|
----2-----------|-----0-0---------|-----6-6---------|
------4---4--3--|--2--------------|-----5-5---------|
--------5-------|-----------------|--0------0-------|
--0-------4--3--|--2------2-------|-----------------|



-----------10-----|--9--------7------|-----------------|
--0-------------7-|-----7-7-----10-8-|--0--------0-2-3/|
-----2-2------7---|-----7-7----------|-----0-0---------|
-----4-4----------|------------------|-----2-2---------|
---------0--------|---------0--------|-----------------|
--0---------------|--0---------------|--2------2-------|



-------------5---|-----------------|--------------5-7-|
--7--------5---7-|--0--------------|----------4-7-----|
-----6-6---------|-----2-2---2-----|--------5---------|
-----5-5---------|-----4-4-----4---|----4-7-----------|
--0------0-------|---------------5-|--6---------------|
-----------------|--0------0-------|------------------|



--5-3-0-----------|----------------|-------10----||
--------0---------|----------0--2--|--3----7-----||
----------0-------|----2-----0--0--|--2----7-----||
------------2-----|------4---2--2--|--4----------||
--------------2-1-|--0-----5----0--|-------0-----||
------------------|----------2-----|--0----------||




Rato
Veterano
# set/03
· votar


excelente essa música

Diniz
Veterano
# set/03
· votar


Se alguem quiser eu tenho a partitura

GuitarMan
Veterano
# set/03
· votar


Vai no site mysongbook que tem ela pra guitar pro.

MrPostman
Veterano
# set/03
· votar


eu tb tenho a partitura, vou me apresentar num teatro aki de Guarulhos no fim do ano e vou toca-la, jah tah athe q limpa, soh falta o finalzinho da segunda parte

ServeTheServants
Melhor arranjo
Prêmio FCC violão 2008
# dez/03
· votar


Eu tava procurando essa música, preciso tocar ela tambem

Enviar sua resposta para este assunto
        Tablatura   
 

Tópicos relacionados a SOM DE CARRILHÕES

289.276 tópicos 7.547.830 posts
Fórum Cifra Club © 2001-2014 Studio Sol Comunicação Digital