Notificações Amigos pendentes

      Fórum Cifra Club - maior fórum de m&uacite;sica do Brasil

      Músicas legais de se tocar no Violão

      Autor Mensagem
      Grewman
      Veterano
      # ago/03


      Olá é minha primeira vez no Fórum. Gostaria que vc's me indicassem músicas legais de se tocar. De preferência músicas não muito difíceis.

      Fernando
      Veterano
      # ago/03
      · votar


      Posta lá no fórum de Violão! =0)

      Grow
      Veterano
      # ago/03
      · votar


      Grewman
      Renan viado?

      ServeTheServants
      Melhor arranjo
      Prêmio FCC violão 2008
      # ago/03
      · votar


      Grow
      hein?

      Grow
      Veterano
      # ago/03
      · votar


      ServeTheServants
      esse kra é um doido q mora aki perto de casa

      guns and iron
      Veterano
      # ago/03
      · votar


      pegue umas cifas do legião urbana, falow

      ServeTheServants
      Melhor arranjo
      Prêmio FCC violão 2008
      # ago/03
      · votar


      Grow = Grewman, ahah, vcs são tipo uma milícia?

      Grow
      Veterano
      # ago/03
      · votar


      ServeTheServants
      é a família Graw fazendo história

      aratohendrix
      Veterano
      # ago/03
      · votar


      Q pais e esse, naum tem mais facil

      Ferrari
      Veterano
      # ago/03
      · votar


      Times like these versao acustico do foo fighters.Eh bem loka.

      aratohendrix
      Veterano
      # ago/03
      · votar


      Times like these e legal mesmo, outra do foo fighters q eu gosto de toca e walking after you, bem legal

      Intro/Fill 1
      (Gtr. 1)
      E
      e|-0------||-0----------|
      B|--0-----||---0---0----|
      G|---1----||-----1------| (Upstroke on the E)
      D|----2---||----------2-|
      A|-----2--||----------2-|
      E|------0-||----------0-|

      (Gtr. 2)
      N.C.
      e|-0---2---4---0---5---4---2---0---4-|
      B|---0---0---0---0---0---0---0---0---|
      G|-1---2---4---1---6---4---2---1---4-|
      D|-----------------------------------|
      A|-----------------------------------|
      E|-----------------------------------|


      Verse
      E E5/G# A Bbdim A B7(add E)
      e|-0------0------0----0-------0----0-|
      B|-0------0------2----2-------2----0-|
      G|-1------4------2----3-------2----2-|
      D|-2------2------2----2-------2----1-|
      A|-2------x------0----1-------0----2-|
      E|-0------4--------------------------|
      "Tonight I'm tangled in my [...]"

      Fill 2
      (Gtr. 1)
      E
      e|-0-|
      B|-0-|
      G|-1-|
      D|-2-|
      A|-2-|
      E|-0-|

      (Gtr. 2)
      N.C.
      e|-0---2---4---0---5---4---2---0---|
      B|---0---0---0---0---0---0---0---0-|
      G|-1---2---4---1---6---4---2---1---|
      D|---------------------------------|
      A|---------------------------------|
      E|---------------------------------|


      Chorus 1
      F#7(add B) Asus2 E
      e|-0-----------0-------0-|
      B|-0-----------0-------0-|
      G|-3-----------2-------1-|
      D|-4-----------2-------2-|
      A|-4-----------0-------2-|
      E|-2-------------------0-|
      "If you walk out on me [...]"


      Chorus 2
      C#m Asus2 F#7(add B)
      e|-(0)-----0-------0-|
      B|--5------0-------0-|
      G|--6------2-------3-|
      D|--6------2-------4-|
      A|--4------0-------4-|
      E|-----------------2-|
      "Another heart is cracked [...]"


      Interlude
      (Gtr. 1)
      E
      e|-0-|
      B|-0-|
      G|-1-|
      D|-2-|
      A|-2-|
      E|-0-|

      (Gtr. 2)
      N.C.
      e|-0---2---4---0---5---4---2---0---|
      B|---0---0---0---0---0---0---0---0-|
      G|-1---2---4---1---6---4---2---1---|
      D|---------------------------------|
      A|---------------------------------|
      E|---------------------------------|

      N.C.
      e|-0---2---4---0---5---4---2---0---|
      B|---0---0---0---0---0---0---0---0-|
      G|-1---2---4---1---6---4---2---1---|
      D|---------------------------------|
      A|---------------------------------|
      E|---------------------------------|

      N.C.
      e|-0---2---4---0---5---4---2---0---2-----2-----2-----2---2-|
      B|---0---0---0---0---0---0---0---0-----0-----0-----0-------|
      G|-1---2---4---1---6---4---2---1---3-3-----3-----3-----3---|
      D|---------------------------------------------------------|
      A|---------------------------------------------------------|
      E|---------------------------------------------------------|


      Outro
      (Gtr. 1)
      E
      e|-0-|
      B|-0-|
      G|-1-|
      D|-2-|
      A|-2-|
      E|-0-|

      (Gtr. 2)
      N.C.
      e|-0---2---4---0---5---4---2---0---|
      B|---0---0---0---0---0---0---0---0-|
      G|-1---2---4---1---6---4---2---1---|
      D|---------------------------------|
      A|---------------------------------|
      E|---------------------------------|

      N.C.
      e|-0---2---4---0---5---4---2---0---|
      B|---0---0---0---0---0---0---0---0-|
      G|-1---2---4---1---6---4---2---1---|
      D|---------------------------------|
      A|---------------------------------|
      E|---------------------------------|

      N.C.
      e|-0---2---4---0---5---4---2---0---4-|
      B|---0---0---0---0---0---0---0---0---|
      G|-1---2---4---1---6---4---2---1---4-|
      D|-----------------------------------|
      A|-----------------------------------|
      E|-----------------------------------|


      Lyrics/Song Structure
      =====================
      ---> Play Intro
      ---> Play Verse over:
      Tonight I'm tangled in my
      Blanket of clouds
      Dreaming aloud
      Things just won't do without you
      Matter of fact
      I'm on your back
      I'm on your back
      I'm on your back
      ---> Play Fill 2
      ---> Play Chorus 1 over:
      If you walk out on me
      I'm walking after you
      If you walk out on me
      I'm walking after you
      ---> Play Fill 1
      ---> Play Verse over:
      If you'd accept surrender
      I'll give up some more
      Weren't you adored?
      I cannot be without you
      Matter of fact
      I'm on your back
      I'm on your back
      I'm on your back
      ---> Play Fill 2
      ---> Play Chorus 1 over:
      If you walk out on me
      I'm walking after you
      If you walk out on me
      I'm walking after you
      ---> Play Chorus 2 over:
      Another heart is cracked
      In two
      I'm on your back
      ---> Play Interlude
      ---> Play Verse over:
      I cannot be without you
      Matter of fact
      I'm on your back
      ---> Play Fill 2
      ---> Play Chorus 1 over:
      If you walk out on me
      I'm walking after you
      If you walk out on me
      I'm walking after you
      If you walk out on me
      I'm walking after you
      ---> Play Chorus 2 over:
      Another heart is cracked
      In two
      I'm on your back
      ---> Play Ending


      falowz

      Johnny
      Veterano
      # ago/03
      · votar


      Running on Faith - Clapton
      Hotel Califórnia - Eagles
      É legal sempre fazer uma versão acústica de caras como Clapton, Beatles, U2, ...

      Grewman
      Veterano
      # ago/03
      · votar


      Valeu galéra. Ae GROW vc é bixa? hehehehehe!!!

      Grewman
      Veterano
      # ago/03
      · votar


      Continuem me enviando mais!!!

      GuitarMan
      Veterano
      # ago/03
      · votar


      stairway to heaven, fica massa no violao

      piculo
      Veterano
      # ago/03
      · votar


      uma do Skank.... eh...... ACIMA DO SOL (lembrei)...
      eh muitooooo fácil. soh tem 2 acordes.

      Am7 e G. tem algo mais fácil e q seja legal?

      Cassio
      Veterano
      # ago/03
      · votar


      Afinal, quem é bicha: Grow ou Greenn??

      Cassio
      Veterano
      # ago/03
      · votar


      Vai em
      www.cursodeviolao.hpg.ig.com.br que tem
      Skank>Acima do Sol com o professor ensinando o ritmo, com som e tal...

      Grow
      Veterano
      # ago/03
      · votar


      Cassio
      é do kra cego esse site??

      Cassio
      Veterano
      # ago/03
      · votar


      GrO> Não sei
      Tempos atras peguei três músicas aí, com aqrquivos de ritmo e o prof. tocando.
      Na verdade ele coloca alumas musicas de propaganda pra escola...

      Ps1c0
      Veterano
      # ago/03
      · votar


      Q q tem a ver o site??
      banda rapadura??
      aHUahuahauaua

      The SkullKiller
      Veterano
      # ago/03
      · votar


      kra toka legião, são as melhores pra tocar...

      Cassio
      Veterano
      # set/03
      · votar


      MPB, especialmente Djavan e Jorge Vercilo
      Mas não é fácil...

      gil brother
      Veterano
      # set/03
      · votar


      jorge vacilo não dá, neh? eh muito chato aquele cara.

      Harvey
      Veterano
      # set/03
      · votar


      Uma música fácil e legal de se tocar no violão é To Be with you do Mr. Big...

      Conde Wil
      Veterano
      # set/03
      · votar


      Uma legal do Jorge Vercilio : Encontro das Aguas
      Essa e uma bem pedida p/ quem faz um voz e violao.

      kava
      Veterano
      # set/03
      · votar


      i am mine eh bem legal
      e facil

      Dieselboy
      Veterano
      # set/03
      · votar


      Capital Inicial, as mina paga mó pau pra quem toca Natasha
      ou Carla do Ls Jack

      Enviar sua resposta para este assunto
              Tablatura   
      Responder tópico na versão original
       

      Tópicos relacionados a Músicas legais de se tocar no Violão

      299.365 tópicos 7.769.801 posts
      Fórum Cifra Club © 2001-2016 Studio Sol Comunicação Digital