Fórum Cifra Club - maior fórum de m&uacite;sica do Brasil

Solos fáceis

Autor Mensagem
Tiago Gama
Veterano
# ago/03


Sou fascinado por solosde guitarra e violão. Como ainda não sou muito abilidoso nos dois instrumentos, quem quiser me ajudar, me enviando solos faceis para se tocar, eu agradeço!!!!!!!

black bird
Veterano
# ago/03
· votar


bom,eu posso ti indicar alguns como o da música zombie,do cramberries,tem uns solinhos tranquilos lá

Grow
Veterano
# ago/03
· votar



e------------------------------
b------------------------------
g--7-9-10--9-------------------
d-----------10-----------------
a--------------8---------------
E------------------------------

e------------------------------
b--------------10-8------------
g--7-9-10--9-------------------
d-----------10-----------------
a-----------------------------
E------------------------------

e------------------------------
b------------------------------
g--7-9-10--9-------------------
d-----------10-----------------
a--------------10--8--5-8-7----
E------------------------------


Tiago Gama
Veterano
# ago/03
· votar


e|-----------1-0-------|-----------1-0-------|-----------0---------|-- ---------0---------|
B|--------3------3-----|--------3------3-----|--------1----3-1-----|-- ------1----3-1-----|
G|-----2---------------|-----2---------------|-----0---------------|-- ---0---------------|
D|--0------------------|--0------------------|---------------------|-- -------------------|
A|---------------------|---------------------|--3------------------|-- 3------------------|
E|---------------------|---------------------|---------------------|-- -------------------|

Grow
Veterano
# ago/03
· votar


Tiago Gama
qual é esse?

Grow
Veterano
# ago/03
· votar


Tiago Gama
é bonito, de quem é?

Grow
Veterano
# ago/03
· votar


Tiago Gama

e--------------------------------------------------------------------- -----------------
b-------------------3-3-0-1-1-------1-0---------------1-0-----------3- 3----3-0-1---1---
g-----------------------------0-2-2-----2-0-2-0---2-2-----2-0-2-0----- ---------------0-
d-5-7-5----5-7-5--------------------------------2-----------------2--- ---3-------2-----
a-------7--------7---------------------------------------------------- -----------------
e--------------------------------------------------------------------- -----------------

e----------------------------------------------------
b----------------------------------------------------
g---0------------------------------------------------
d-2---3-0--------------------------------------------
a---------3------------------------------------------
e----------------------------------------------------


Tiago Gama
Veterano
# ago/03
· votar


Grow, é o do Alvorada Vorazdo do RPM. Muito show mesmo...

pedrunk
Veterano
# ago/03
· votar


Grow
ainda nem eh natal! uaehuae
noite felizzzz noite feliz.... oh senhoooorrrr! ehahuaehuae


Tiago Gama

pega purple haze do jimi hendrix..... o intro pelo menos eh facil e eh bem legal!

Grow
Veterano
# ago/03
· votar


pedrunk
hehehe

Tiago Gama
Veterano
# ago/03
· votar


e|-----7------7-------7------------|
B|---------------------------8-7---|
G|---9------9------9-------9-------|
D|-9------9------9-------9---------|
A|---------------------------------|
E|---------------------------------|
Red Hot Chili Peppers -
By The Way - Venice Queen

Leandro
Veterano
# ago/03
· votar


Tira os solos do Nirvana e RHCP q eh boiada, só treinar um poukinho...

Alpha
Veterano
# ago/03
· votar


tem a musica do parabéns pra vc q é bem facil heeheh...

Mais essa musica é facil e legal tenta toca

e|--------------15----14-----|--------------15----14-----|
B|-----15--------------------|-----15--------------------|
G|:-------14-12----14----14-:|:-------14-12----14----14-:|
D|--12-----------------------|--12-----------------------|
A|---------------------------|---------------------------|
E|---------------------------|---------------------------|

e|--------------15----14-----|--------------15----14-----|
B|-----15--------------------|-----15--------------------|
G|:-------14-12----14----14-:|:-------14-12----14----14-:|
D|--14-----------------------|--14-----------------------|
A|---------------------------|---------------------------|
E|---------------------------|---------------------------|

e:|--------------15----14-----|--------------15----14-----|
B:|-----15--------------------|-----15--------------------|
G:|:-12----14-12----14----14-:|:-12----14-12----14----14-:|
D:|---------------------------|---------------------------|
A:|---------------------------|---------------------------|
E:|---------------------------|---------------------------|

e|--------------15----14-----|--------------15----14-----|
B|-----15--------------------|-----15--------------------|
G|:-------14-12----14----14-:|:-------14-12----14----14-:|
D|--12-----------------------|--12-----------------------|
A|---------------------------|---------------------------|
E|---------------------------|---------------------------|
2 X (duas vezes)

Tiago Gama
Veterano
# ago/03
· votar



E|---7---7---7---7-----5---3---3---3---3----5----|
B|-5---5---5---5-----3---5---5---5---1---3-------|
G|-----------------------------------------------|
D|-----------------------------------------------|
A|-----------------------------------------------|
E|-----------------------------------------------|

Que País É Este - Legião Urbana

sepultura_im
Veterano
# out/05
· votar


mano um solo bem facil, q basicamente eh a musica inteira eh Fairy Tale - Shaaman...q na verdade eh no piano mas fica dahorinha na guitarra

affcl
Veterano
# out/05
· votar


kra solo facil e didático para mim é 1º solo de sultans of swing
e o 1º solo da versão de knocking do guns (resquicios do meu passado negro)

guitarlooko
Veterano
# nov/09
· votar


e------------------------------------------------------
B-8-10-8-8---8-7------3-----3-----3--------------------
G-7-7--7-7-7-7-7-7----2-----2-----2--------------------
D-0----------------0--0--3b-0-3h4-0-3p0----------------
A------------------------------------------------------
E------------------------------------------------------

e------------------------------------------------------
B-8-8-8---10--8-8---8-7------3--------------------------
G-7-7-7-7-7---7-7-7-7-7-7----2--------------------------
D-0-----------------------0--0---------------------------
A------------------------------------------------------
E------------------------------------------------------

Sedank
Veterano
# nov/09
· votar


Michelle:

E |--------------------------------------------------------------------- --
B |--------------------------------------------------------------------- --
G |-----------3-5-6--6/1--0--0-1-3-----------------------1----------
D |-3--3-5-7------------------------1--3--3-5-6--0--2--0---3-2----
A |--------------------------------------------------------------------- --
E |--------------------------------------------------------------------- --

E |----------------------------------
B |----------------------------------
G |-----------0-1-------------------
D |-----0-2-3----------------------
A |---3------------------------------
E |----------------------------------

Gabriel Felix
Veterano
# nov/09
· votar


telemar
eu inventei:

E |---0--3--8--5--7--10--7--8--
B |---------------------------------
G |---------------------------------
D |---------------------------------
A |----------------------------------
E |----------------------------------

Parabens pra vc

E |-0--0--2--0--5--4--0--0--2--0--7--5--99--12--9--5--3--2--1010--9--5-- 7--5
B |---------------------------------
G |---------------------------------
D |---------------------------------
A |----------------------------------
E |----------------------------------

morte:

E |--3--3--33--6--55--33--2--33------------------
B |---------------------------------
G |---------------------------------
D |---------------------------------
A |----------------------------------
E |--3--3--33--6--55--33--2--33-------------------


coca cola
eu inventei

E |----------------------------------
B |---------------------------------
G |--9--5--7--9--5--5--12--10--9--7--9--5--7--9--5---
D |---------------------------------
A |----------------------------------
E |----------------------------------


espero ter ajudado

duty
Veterano
# nov/09
· votar


Tiago Gama


eu acho a musica dont cry facil,é so vc treinar bastante q vai conseguir.tem la no cifra club tv pra vc aprender,da um a olhada

darkgoth69
Veterano
# jan/11
· votar


Forgive me father(I have sinned)do cradle of filth é bem facil e legalzinho,tanto o da intro quanto os outros solos

dvivi
Membro Novato
# 06/dez/13 16:37
· votar


Cara toco a 1 mês e já peguei o solo da musica Anna Julia é muito fácil em 1 dia tu pega.

Slash_1989
Veterano
# 06/dez/13 17:07
· votar


caraca....


era outro fórum! outra realidade....

Enviar sua resposta para este assunto
        Tablatura   
 

Tópicos relacionados a Solos fáceis

289.580 tópicos 7.554.644 posts
Fórum Cifra Club © 2001-2014 Studio Sol Comunicação Digital