Fórum Cifra Club - maior fórum de m&uacite;sica do Brasil

escala de dó

Autor Mensagem
cristo
Veterano
# ago/05


Eu queria aprender aescala de dó

O_kra
Veterano
# ago/05
· votar


Bom Dia,

Pessoal,devido a grande procura por apostilas,eu vou disponibilisar uma muito boa,bem completa para quem quer inicar no estudo,ela não serve para nível avançado,mais iniciante e intermediário.Basta ir no link
http://rapidshare.de/files/3001221/apostila.doc.html


Após abrir a página vá no final dela e escolha a opção free para opção de download,depois vá novamente no final da página e espere mais alguns segundos que ele ira disponibilisar o download!!!

Espero que gostem da apostila de bons estudos!!!!

Gtosco
Veterano
# ago/05
· votar


Escala de dó o quê? Frígio, Maior, Menor, Mixolídio, Pentatônica, Harmônica?

Prático
Veterano
# ago/05
· votar


Gtosco, pela pergunta, o cara quer o básico, não complica.

Vou tentar ajudar, imagine as cordas do violão abaixo, na frente eu coloco as casas que deves pressionar...



1)

2) 0 1

3) 0 2

4) 0 2 3

5) 3

6)

Pronto isso é uma escala de dó.

ateobaldo
Veterano
# ago/05
· votar


a escala de dó é assim:

e------------------------------------------------------
B------------------------------------------------------
G--------------2-4-5--------------------------------------
D-------2-3-5---------------------------------------------
A--3-5---------------------------------------------------
E------------------------------------------------------

(C,D,E,F,G,A,B,C)-cordas graves


ou assim(cordas agudas).


e-----------------5-7-5-----------------------------------
B----------5-6-8-----------------------------------------
G-----5-7------------------------------------------------
D------------------------------------------------------
A------------------------------------------------------
E------------------------------------------------------

(C,D,E,F,G,A,B,C)-cordas agudas

ateobaldo
Veterano
# ago/05
· votar


espero ter te ajudadocristo
era isso mesmo?

Prático
Veterano
# ago/05
· votar


ateobaldo

qualquer digitação é válida, mas se o cara tá começando usar as cordas soltas pode ser mais fácil.

ateobaldo
Veterano
# ago/05
· votar


Prático
bem pensado

Nineee
Veterano
# out/09
· votar


não sei ao(cristo) mas a mim ajudo ...
tenho que faze e uma melodia
e li que as escalas podem m ajudar bastante..~
valeww obrigada...

Comette
Veterano
# fev/10 · Editado por: Comette
· votar


como eu faço escala menor??? tem varias musicas q eu toco com Bm e Am e eu n sei fazer a escala... alguem pode me ensinar, se puder coloca a tablatura aki mesmo... vlw^^

ricolb
Veterano
# fev/10
· votar


Comette

USE A BUSCA

FLO7v
Veterano
# fev/10 · Editado por: FLO7v
· votar


cristo

Essa é a Maior Natural (Jônio)

C D E F G A B C :D

Shape:


e-----------------------------------------7-8--------------
B-----------------------------------8-10---------------------
G---------------------------7-9-10---------------------------
D-------------------7-9-10----------------------------------
A-----------7-8-10-----------------------------------------
E----8-10------------------------------------------------


espero ter ajudado
abraços

Carregando
Veterano
# fev/10
· votar


FLO7v

ahuhuahuahuah

Comette

só estuda qual é a nota menor relativa de cada tom, que as escalas sao as mesmas

FLO7v
Veterano
# fev/10 · Editado por: FLO7v
· votar


Carregando

foi mal
confundi aqui
aushdiasuhiasduh

já editei la..

Enviar sua resposta para este assunto
        Tablatura   
 

Tópicos relacionados a escala de dó

289.271 tópicos 7.547.677 posts
Fórum Cifra Club © 2001-2014 Studio Sol Comunicação Digital