Fórum Cifra Club - maior fórum de m&uacite;sica do Brasil

desenho de acordes

Autor Mensagem
Ryu
Veterano
# jun/05 · Editado por: Ryu


ae galera, tava pensando em expandir a minha possibilidade em fazer acordes, creio eu q isso ajudaria mto outros iniciantes ao invés de explicar a formação de acordes
entao la vai a minha idéia
por ex F
<pre>
e--1----------------------------------------------------
B--1----------------------------------------------------
G--2----------------------------------------------------
D--3----------------------------------------------------
A--3----------------------------------------------------
E--1----------------------------------------------------
</pre>
se avançar uma casa é F#
pra ficar mais claro o q eu quero dizer Ex C
<pre>
e-0-----------------------------------------------------
B-1-----------------------------------------------------
G-0-----------------------------------------------------
D-2-----------------------------------------------------
A-3-----------------------------------------------------
E-------------------------------------------------------
</pre>
se aumentar meio tom mantendo o padrão da posição dos dedos teremos C#
<pre>
e-1-----------------------------------------------------
B-2-----------------------------------------------------
G-1-----------------------------------------------------
D-3-----------------------------------------------------
A-4-----------------------------------------------------
E-------------------------------------------------------
</pre>
qm manjar, da uma força ae, vlw

adnz
Veterano
# jun/05
· votar


é a pata de urso

monk
Veterano
# jun/05
· votar


friends?

monk
Veterano
# jun/05
· votar


Ryu

cara da uma olhada no CAGED, sao os cinco desenhos dos acordes pelo braço

renatocaster
Moderador
# jun/05
· votar


Ryu

Dãããããããããããããããããããããããããããã

monk

Ryu

cara da uma olhada no CAGED, sao os cinco desenhos dos acordes pelo braço


up!

Ryu
Veterano
# jun/05
· votar


monk
ahh valeu, num tinha lido direito o CAGED

Ryu
Veterano
# jun/05
· votar


renatocaster
!¬¬

msm assim eu queria ver desenhos de acordes com 7ª, 9ª, etc

Polêmico
Veterano
# jun/05
· votar


desenho de acordes
Prefiro os do Cartoon Network.

monk
Veterano
# jun/05
· votar


cara pega a formação dos acordes e distribui eles pelo braço todo, vc encontra o CAGED assim

renatocaster
Moderador
# jun/05
· votar


Ryu

na verdade tudo se baseia no CAGED cara, e tb na famosa Regra Universal. Veja:


T b2 2 b3 3 4 #4(b5) 5 #5 6 b7 7M T

renatocaster
Moderador
# jun/05
· votar


partindo daí juntamente com o CAGED vc monta qualquer acorde...

ACORDE MININO!!!

Enviar sua resposta para este assunto
        Tablatura   
 

Tópicos relacionados a desenho de acordes

290.758 tópicos 7.586.619 posts
Fórum Cifra Club © 2001-2014 Studio Sol Comunicação Digital